Miladin Sobic - Od Druga Do Druga

Transkripcija: Superhik


   Em
Od druga do druga,
   D
Od grada do grada,
   C
Od drage do drage,
   Em
Provodim vijek.

Rasut u komade,
Vezan samo pjesmom,
Sebi i zivotu 
Trazim smisao i lijek.

 G       D        Em
Ponekad mislim na ono vrijeme
Svi racuni kad se svode,
I kad sunce mirno zaspi,
Kad presahnu moje vode.

Tad cu morat i ja stati,
mozda i ja u kafani,
Uzalud cu pjesmom zvati,
Da se vrate ovi dani. 


***VERZIJA 2***
Transkripcija: Simke85


      Em            D          C               Em
E|----0-------0-----2------2-------0-------0-----0------0----|
B|----0-------0-----3------3-------1-------1-----0------0----|
G|----0-------0-----2------2-------0-------0-----0------0----|
D|--2-2---2-2-2---0-0--0-0-0-------2-------2---2-2--2-2-2----|
A|------------------------------3------3-3-------------------|
E|-----------------------------------------------------------|

Ovo se svira Uz I,II.III,IV strofu

* Za ovaj deo nisam siguran 100% ali zvuci dobro.


E|------------------0----|
B|-----0-----2------0----|
G|----0-----3-3-----0----|  3 puta
D|---0-----0------2-2----|
A|-----------------------|
E|-3---------------------|

* Posle ova 3 puta isti ovaj deo samo sa razlicitim zavrsetkom

E|------------------0------0-0-----|
B|-----0-----2------0-----0---0----|
G|----0-----3-3-----0----0-----0---|
D|---0-----0------2-2---2-------2--|
A|---------------------------------|
E|-3-------------------------------|

* Solo nisam ni pokusavao da skinem ali ako budem uspio
* u skorije vreme da ga skinem poslacu ga.
* Bas mi je drago sto drug zeli da napravi sajt o Sobicu i
* ukoliko budem u mogucnosti da mu pomognem,pomoci cu mu,
* ima moju podrsku.

A evo i teksta:

    Od druga do druga
    Od drage do drage
    Od grada do grada
    Provodim vijek.

    Rasut u komade,
    Vezan samo pjesmom,
    Sebi i zivotu
    Trazim smisao i lijek.

    Od druga do druga
    Od drage do drage
    Od grada do grada
    Provodim vijek.

    Sa mukom pod rukom
    trazim nadu u padu
    a gadja me aplauz
    gadja me smijeh

   Ponekad mislim na ono vrijeme
   Svi racuni kad se svode,
   I kad sunce mirno zaspi,
   Kad presahnu moje vode.

   Tad cu morat i ja stati,
   Mozda i ja u kafani,
   Uzalud cu pjesmom zvati,
   Da se vrate ovi dani.

* Napomena:akordi za ovu pjesmu imaju u arhivi i tacni su
* ali ovo je uradjeno malo drugacije.