Mladen Vojicic - Tifa - Dani Bez Tebe

Transkripcija: Stojan Babic


Uvod:
 Em            A              |upstroke |
e|--------0---|-----------|---|--0------|-----------|--\
B|------0-----|-------0---|---|--0------|--------0--|---|
G|----0-------|-----2-----|x2-|--0------|------2----|x2-|
D|--2---------|---2-------|---|--2------|----2------|---|
A|------------|-0---------|---|--2------|--0--------|---|
E|------------|-----------|---|--0------|-----------|--/

Verse:
Em            G
Tiho te zovem
G      A       Em   G  A  Em
ime ti ustim u noc
Em            G
i ma gde da si
G    A           Em  G  A  Em
ovaj sapat ce ti doc

...

Bridge:
D        C           Em
Dio nase srece i mog sna
D          C            H
Zelja koja tece u mojim venamaaaa


Chorus:
Em       C
Dani bez tebe
Am           D
Sve su mracniji
Em           C
I ko da nema me
     Am          D
Kada samnom nisi ti


Solo 1:
                           rake
e|--------------------------------|akordi za pratnju su isti
B|---------8----------------------|
G|-----7-9---9~~------7-----------|kao i akordi iz strofe.
D|--/9-------------/9---7~----5^^-|
A|---------------------------x----|
E|--------------------------x-----|

Solo 2:
                                   rake
|----------12------------------------------------
|-------12----15^^---10P^^rp8h10-----8^^---------
|--14^^-----------------------------x------(9)---
|----------------------------------x-------------
|------------------------------------------------
|------------------------------------------------

|----15-17^.r^.r^.---15-------15^^---------------------10--------------------
|-17---------------------17-----------10P^^r---8-10/12------10p^^-8-10^^-----
|-------------------------------------------------------------------------9--
|----------------------------------------------------------------------------
|----------------------------------------------------------------------------
|----------------------------------------------------------------------------

|-10-----10-------------------------------------------------------
|-10^^---10^^--8--10\----------------------------7h8p7---7---10---
|--------------7--9-\----/7----------------------------9----------
|---------------------------7---5-7^^r-5-------9------------------
|----------------------------------------7\-----------------------
|-----------------------------------------------------------------

|-------------------------------------------------------------12----------
|--------------------------------------7-------------------12-12--15^^----
|----9h11p9---12-----9h11p9h11-----7h9-------7h9-9~~~------12-------------
|--9--------9------9-------------9---------9------------------------------
|-------------------------------------------------------------------------
|-------------------------------------------------------------------------

P^^ =  Pre-Bend release
^^  =  Full bend
^^. =  1/4  bend
h   =  hammer on
p   =  Pull off
( ) =  lagano okinuti
/   =  slide out
\   =  slide in