Nbg - Anarhija

Transkripcija: Toma 3:16 (toma3-16@wanadoo.fr)


---------------------------
---------------------------
9-10-9--7-6-7-4--6-2--2-2--       x8      
---------------------------
---------------------------
---------------------------

RIFF  A         C G   A   C G
      Ovde niko nezna
      A         C    G    A   C G
      Koje koje koje skim
      A         C G   A   C G
      Ovde niko nezna
      A              C   G   A   C G
      Da li je mrtav ili ziv

RIFF  F                    G
      ------------------------------------------
      ------------------------------------------
      ----5-5-4-4-2-2-0-0------5-5-4-4-2-2-0-0--
      3--------------------5--------------------
      1--------------------3--------------------
      1--------------------3--------------------

RIFF   A       C G
      ANARHIJA!  
       A       C G 
      ANARHIJA! 
       A       C G  
      ANARHIJA!  
       A       C G 
      ANARHIJA!

---------------------------
---------------------------
9-10-9--7-6-7-4--6-2--2-2--       x4     
---------------------------
---------------------------
---------------------------
   
RIFF  A         C G   A   C G
      Ovde niko nezna
      A              C   G  A   C G
      Da li ce se probuditi
      A         C G   A   C G
      Ovde niko nezna
      A           C   G  A   C G
      Da li ce preziviti

RIFF  F                    G
      ------------------------------------------
      ------------------------------------------
      ----5-5-4-4-2-2-0-0------5-5-4-4-2-2-0-0--
      3--------------------5--------------------
      1--------------------3--------------------
      1--------------------3--------------------

RIFF   A       C G
      ANARHIJA!  
       A       C G 
      ANARHIJA! 
       A       C G  
      ANARHIJA!  
       A       C G 
      ANARHIJA!

---------------------------
---------------------------
9-10-9--7-6-7-4--6-2--2-2--       x4  
---------------------------
---------------------------
---------------------------

RIFF                   A   C G
      Ispred sebe rusi
      A           C    G   A   C G
      Ispred sebe rusi sve
      A         C G   A   C G
      Stani ako mozes
      A         C  G  A   C G
      Stani ako smees

RIFF  F                    G
      ------------------------------------------
      ------------------------------------------
      ----5-5-4-4-2-2-0-0------5-5-4-4-2-2-0-0--
      3--------------------5--------------------
      1--------------------3--------------------
      1--------------------3--------------------

RIFF   A       C G
      ANARHIJA!  
       A       C G 
      ANARHIJA! 
       A       C G  
      ANARHIJA!  
       A       C G 
      ANARHIJA!
       A       C G
      ANARHIJA!  
       A       C G 
      ANARHIJA! 
       A       C G  
      ANARHIJA!  
       A       C G  A
      ANARHIJA!


***VERZIJA 2***
Transkripcija: Darko Pandurevic (skinheads_sr@yahoo.com)
Home         : http://2akordi.net


Uvod: C#5H5,C#5E5D#5E5D#5,C#5H5

E-------------------------
H-------------------------
G-------------------------
D-------------------------
A-9-10-9-7-9-7-6-7-5-4----
E-------------------------


C#5       E5 H5 C#5E5H5
Ovde niko ne zna
C#5        E5    H5  C#5E5H5
ko je ko i ko je skim
C#5       E5 H5 C#5E5H5
Ovde niko ne zna
C#5      E5        H5 C#5E5H5
da li je mrtav ili ziv
     A5           H5
E-----------|-------------
H-----------|-------------
G-----------|-------------
D-----------|-------------
A-7-6-4-2---|-7-6-4-2-----
E-----------|-------------
C#       E5H5
Anarhija! (x4)

Ovde niko ne zna
da li ce se probuditi
Ovde niko ne zna
Da li ce preziveti

Anarhija! (x4)
C#5              C#5E5H5
Ispred sebe rusi
C#5         E5   H5 C#5E5H5
Ispred sebe rusi sve
C#5   E5  H5   C#5E5H5
Stani ako mozes
C#5   E5  H5  C#5E5H5
Stani ako smes


Anarhija! (x8)