Nbg - Prodane Duse

Transkripcija: Stojan Babic


Intro:
|------------------------|
|-------x-x-x------------|
|-------x-x-x-------x-2--|x6
|-4-4-4-x-x-x-4-4-4-x-2--|
|-4-4-4-x-x-x-4-4-4-x-0--|
|-2-0-2-------2-0-2------|


Strofa:
F#
Uvek ste svi
A
Svi bili tu
H
Kada sam imao
F#
Imao sve

Uvek bi skocio
Kada bi trebalo
Mislio sam
Vratice se

A znali su dobro
Da koriste
Zagrizli su me
Jeli me

F#5
A kada sam posao
A5
Oni su stali
H5
Oni su stali
C#5
Izdali su me

   * Sve cetiri strofe se svira isto
   * s tim sto prve dvije strofe svira samo bas linija
   * a zatim se ubacuje gitara i svira petice i cetvrta
   * strofa se zavrsava sa C#5


Refren:
F#5
Prodane duse
A5
Prodane duse
H5
Prodane duse
F#5
Mogu da ga puse


Posle drugog refrena koji je isti kao i prvi ide solo:
|-------------------------------|
|-------------------------------|
|--5--4--5--4--5--4-------------|x4
|--x--x--x--x--x--x--7--4--4-4--|
|--3--2--3--2--3--2--x--x--x-x--|
|--------------------5--2--2-2--|