Nbg - Zaustavi Me

Transkripcija: Darko Pandurevic - rbullsknl@yahoo.com


Intro:
E-------------------------------------
H-------------------------------------
G-------------2-------------2---------
D-4-4-2-4-2-4---4-4-2-4-2-4-----------
A-------------------------------------
E-------------------------------------

E-------------------------------------
H-------------------------------------
G-------------2-----------------------
D-4-4-2-4-2-4---4-4-2-4-2-------------
A-------------------------2-----------
E-------------------------------------

F#5       D5
Ceo zivot trazio sam sebe
H5              E5
I nisam znao ni gde ni kud
F#5         D5
ti si imala uvek samo mene
H5            E5
A ja sam imao svoj put

F#5
Pkusaj jos jednom
D5
Pokusaj jos jednom
H5                       E5
Pokusaj jos jednom da me zadrzis
Pokusaj jos jednom
Pokusaj jos jednom da me uhvatis

Zaustavi me sada
Sada ili nikad
Pokusaj jos jednom
Sada ili nikad

Htela bi jos jednom da me osetis
Htela bi jos jednom da me pobedis
Al ja vise nisam hrabar kao pre
Pokusaj jos jednom i zaboravi sve