Negative - Ja Bih Te Sanjala

Transkripcija: Nikola Kolarovic
	           nikolak@bigfoot.com


INTRO:                                                                     
     Dm7                     G6add13                     Dm7
E||---------------5/------|--0----------------|-----------------5------|
B||--6----6h5--5--6/------|--3----------------|----------6h5--5-6------|
G||--5----5----5--5/------|--0----------------|------x-x-5----5-5------|
D||--7----7----7--7/------|--2----------------|------x-x-7----7-7------|
A||--5----5----5----------|-------------------|------x-x-5----5--------|
E||-----------------------|-------------------|------------------------|

  G						Dm7                 F
-----------------------12--------10------7h8-|-----------5----5-5-----------|
-----------12--------------------------------|-----------6h5--5-6--------10-|
-----------12----12/14-----10/12-----5/7-----|-------5---5----5-5--------10-|
--10-11-12-12--------------------------------|--0----5h7-7----7-7---9h10----|
---------------------------------------------|-------5---5------------------|
---------------------------------------------|------------------------------|

  G			     Dm                       Am   G   F
--------------------------|-----------------5------|--8----7---5----------|
-----------12-------------|----------6h5--5-6------|--10---8---6----------|
-----------12-------------|----------5----5-5------|--9----7---5----------|
--10-11-12-12-------------|----------7------7------|----------------------|
--------------------------|--5-----5---------------|----------------------|
--------------------------|------------------------|----------------------|


(jako slicno sa uvodom)

Dm7                       G
 Da nema sunca ni meseca, ja mogla bih
 Da nema vode ni vazduha, ja mogla bih
 Da nema stiha ni tonova, ja mogla bih
Dm                   Am      G    F
 Ali da nemam tebe - sta bih tada ja?


 I da imam gde da odem, ja ne bih otisla
 Da imam sta da kazem, ja bih cutala
 I da nekom drugom mogu, ne bih mu pevala
 Jer da nemam tebe - sta bih tada ja?


REFREN:
  D5           E5    F5                G5          A5
-------------------------|----------------------------------|
-------------------------|----------------------------------|
--7--------7-7/9--9--10--|----------10/12-12-12-12/14-14-14-|
--7--------7-7/9--9--10--|----------10/12-12-12-12/14-14-14-|
--5--------5-5/7--7--8---|----------8/-10-10-10-10/12-12-12-|
-------------------------|----------------------------------|

       D5     E5    F5               B5    C5     D5           E5    F5
------------------------|----------------------|-------------------------|
------------------------|----------------------|-------------------------|
--14/---7------9----10--|----------x-3---x-5---|--7--------7-7/9--9--10--|
--14/---7------9----10--|----------x-3---x-5---|--7--------7-7/9--9--10--|
--12/---5------7----8---|----------x-1---x-3---|--5--------5-5/7--7--8---|
------------------------|----------------------|-------------------------|

             G5          A5                D5     E5   F5
----------------------------------|------------------------|
----------------------------------|------------------------|
----------10/12-12-12-12/14-14-14-|--14/---7------9----10--|
----------10/12-12-12-12/14-14-14-|--14/---7------9----10--|
----------8/-10-10-10-10/12-12-12-|--12/---5------7----8---|
----------------------------------|------------------------|

  D5  C5  B5
---------------------|
---------------------|
--7---5---3----------|
--7---5---3----------|
--5---3---1----------|
---------------------|

D5  E5     F5   G5A5   D5  E5     F5      B5 C5
 Ja bih te sanjala,     ja bih te sanjala
    D5    E5 F5   G5A5         D5           E5    F5      D5 C5 B5
 Od snova te pravila,      jer ako postojis ti postojim i ja


{ refren cete tesko svirati ako pazljivo ne poslusate pesmu ili GP3 }
{ moze se svirati i na drugi nacin, uz bas liniju }

(*  Dm C      G       B C  Dm C      G      B C       *)
(*  Ja bih te sanjala,     ja bih te sanjala ... itd  *)



 Da nema sunca ni meseca, ja mogla bih
 Da nema vode ni vazduha, ja mogla bih
 Da nema stiha ni tonova, ja mogla bih
 Ali da nemam tebe - sta bih tada ja?

 Ja bih te sanjala, ja bih te sanjala
 Od snova te pravila, jer ako postojis ti postojim i ja

 I da imam gde da odem, ja ne bih otisla
 Da imam sta da kazem, ja bih cutala
 I da nekom drugom mogu, ne bih mu pevala
 Jer da nemam tebe - sta bih tada ja?

SOLO:

 b - bend
 r - release bend
 AH - artificial harmonics (svinja)

                   AH              AH
|----------------------|----------------------|
|------8b-----8--6-----|-----------6brbr------|
|------------------5~--|----7------------7-5~-|
|----------------------|----------------------|
|----------------------|----------------------|
|----------------------|----------------------|

|------15b-----15--13------|------------------------|
|----------------------13--|----15------------------|
|--------------------------|----------12----10~-----|
|--------------------------|------------------------|
|--------------------------|------------------------|
|--------------------------|------------------------|

              AH  AH
|-----------------------------|----------------------|
|-----------------------------|----------------------|
|-------------10--12~---------|----------------------|
|--12~--10-10-----------------|----------------------|
|-----------------------------|----------------------|
|--------------------------8/-|----10----10~---------|

|----------------------------|------13br----
|--------13------------------|--------------
|--12b-----------12r-10------|--------------
|------------------------12/-|--------------
|----------------------------|--------------
|----------------------------|--------------



OUTRO:

   Dm            C                G             B      C
|------------------------------|------------------------------|
|------------------------------|------------------------------|
|--7--x-x-7--x-x-5--x-x-5--x-x-|-----x-x----x-x-3--x-x-5--x-x-|
|--7--x-x-7--x-x-5--x-x-5--x-x-|--5--x-x-5--x-x-3--x-x-5--x-x-|
|--5--x-x-5--x-x-3--x-x-3--x-x-|--5--x-x-5--x-x-1--x-x-3--x-x-|
|------------------------------|--3------3--------------------|

 Dm         C          G         B  C
 Ja bih te, ja bih te, ja bih te sanjala  


--------------------------------------------------------------
 Sve ispravke i dopune su dobrodosle! (nikolak@bigfoot.com)


***VERZIJA 2***
Transkripcija: Aleksej Kisjuhas  (paulalex@EUnet.yu)
Home         : http://2akordi.net

Dm  Dm C B

 Da nema sunca ni meseca, ja mogla bih

 Da nema vode ni vazduha, ja mogla bih

 Da nema stiha ni tonova, ja mogla bih

 Ali da nemam tebe - sta bih tada ja?


 I da imam gde da odem, ja ne bih otisla
 Da imam sta da kazem, ja bih cutala
 I da nekom drugom mogu, ne bih mu pevala
 Jer da nemam tebe - sta bih tada ja?


 Ja bih te sanjala, ja bih te sanjala

 Od snova te pravila, jer ako postojis ti postojim i ja


 Da nema sunca ni meseca...

Dm C        G   B  Dm C       G   B
 Ja bih te sanjala, ja bih te sanjala
Dm   C        G    B  Dm               C             G B
 Od snova te pravila, jer ako postojis ti postojim i ja
Dm C        G   B  Dm C       G   B
 Ja bih te sanjala, ja bih te sanjala
Dm   C        G    B  Dm               C             G B
 Od snova te pravila, jer ako postojis ti postojim i ja
 Dm C G  B
 oooo oooo
 
Dm C        G   B  Dm C       G   B
 Ja bih te sanjala, ja bih te sanjala
Dm   C        G    B  Dm               C             G B
 Od snova te pravila, jer ako postojis ti postojim i ja
 Dm               C            G   B
 ja bih, ja bih te, ja bih te sanjala
 Dm             C           G   B    Dm C G B
 ja bih, ja bih, ja bih te sanjala, oooooooooo
 Dm           C             G B      Dm C B   Dm
 ako postojis ti postojim i ja

Imam i improvizovan solo. Odnosno melodiju pesme, temu. 
Neka posluzi nekom da malo razbije monotoniju suvih akorda.

e ---5------------------5-----10----------
H -----8-6----------------8-6----10-8-6-6-
G ---------5-7-7--------------------------
D ----------------------------------------
A ----------------------------------------
E ----------------------------------------

e ---5------------------------------------
H -----8-6-----------6-------6------------
G ---------5-7-7---7---7-5-7--7-5 7-------
D ----------------------------------------
A ----------------------------------------
E ----------------------------------------