Negative - Kad Se Svetla Ugase

Transkripcija: Vai
Album        : Tango


Eb stim


Strofa:
G
Uzalud trazim
G               C        G
razlog da te od sebe odvojim
G
jednostavno je
            C       G
nemoguce da srce umirim

Refren:
G                  Hm
  kad se svetla ugase
             C
ja jos vidim sjaj
                      C
sa kraja sveta bih te ja
          G
lako pronasla
               Hm
kada zavrsi se dan
                 C
dah sa tvojih usana

zivot udise
       C         G
kad se svetla ugase

Nista ne cujem
nikog ne vidim
nema ostajem
ako zamislim
da te nemam ja
i da je svemu kraj,
da je svemu kraj

ispod ove koze
u ovim grudima
tece jedan zivot
koji poklanjam ti ja


SOLO:
D#|----------------------------------------------------|
A#|----------20----------20----------20----------------|
F#|--16h-17--------17----------17----------17h-16--16--|
C#|----------------------------------------------------|
G#|----------------------------------------------------|
D#|----------------------------------------------------|

  |----------------------------------------------------|
  |----------20----------20----------20----------------|
  |--16h-17--------17----------17----------17h-16--16--|
  |----------------------------------------------------|
  |----------------------------------------------------|
  |----------------------------------------------------|

  |----------------------------------------------------|
  |----------20----------20----------20----------------|
  |--16h-17--------17----------17----------17h-16--16--|
  |----------------------------------------------------|
  |----------------------------------------------------|
  |----------------------------------------------------|

  |----------------------------------------------------|
  |----------20----------20----------20----------------|
  |--16h-17--------17----------17----------17h-16------|
  |------------------------------------------------17--|
  |----------------------------------------------------|
  |----------------------------------------------------|

  |--------------------------------------|------------------------------------------|
  |--------------------------------------|------------------------------------------|
  |----------19-------17-------16--------|-----------19--------17-------16--16h-17--|
  |--17--17-------17-------17-------17~--|---17--17--------17-------17--------------|
  |--------------------------------------|------------------------------------------|
  |--------------------------------------|------------------------------------------|

  |--------------------------------------|------------------------------------------|
  |--------------------------------------|------------------------------------------|
  |----------19-------17-------16--------|-----------19--------17-------16--16h-17~-|
  |--17--17-------17-------17-------17~--|---17--17--------17-------17--------------|
  |--------------------------------------|------------------------------------------|
  |--------------------------------------|------------------------------------------|

  |--------------------------------------|
  |--------------------------------------|
  |--16~---------------------------------|
  |----------17~-------------------------|
  |-------------------17h19-----17~~-----|
  |--------------------------------------|