Neki To Vole Vruce - Kakva Noc (svi Na Ples)

Transkripcija: mario svenda, marioo@email.t-com.hr


Uvod:
     G       Am7        G       Am7 G
e|-------------------|---------------------|
B|-------------------|---------------------|
G|---4-------5-------|--4-------5---4------|
D|---5-------5-------|--5-------5---5------|
A|---5-------7-------|--5-------7---5------|
E|--------3-------3--|-------3---------3---|

Osim uvoda u pjesmi idu i ovi 'rifovi':
     D                  Em            D     Em/C        D
e|-------------------|-------------------|-----------------|
B|-------------------|-------------------|-----------------|
G|---2-------2-------|--9-----9---9---2--|--0-----------2--|
D|---4-------4-------|--9---9-9---9---4--|--2-----------4--|
A|---5---5---5---5---|--7---7-7---7---5--|--3-----------5--|
E|-----------------0-|-------------------|-----------------|
     D                  Em            D     F    Fsus4        F               G
e|-------------------|-------------------|-----------------|---------------------|
B|-------------------|-------------------|-----------------|------------------3--|
G|---2-------2-------|--9-----9---9---2--|--2-----3--------|--2---2-----------4--|
D|---4-------4-------|--9---9-9---9---4--|--3-----3----3---|--3---3-----------5--|
A|---5---5---5---5---|--7---7-7---7---5--|--3--------------|--3-----3---------5--|
E|-----------------0-|-------------------|--1--1---------1-|--1-----1---1-1---3--|


      G   Am7    G  Am7 G
Kakva noc,   ludilo u   nama
      G   Am7       G  Am7 G
kakva noc,   svi na ulica__ma
      D     Em   D   Em/C   D
kakva noc,o dodji osjeti  na tren

      G   Am7     G        Am7 G
kakva noc,   luda strast u du__si
      G   Am7     G         Am7 G
kakva noc,   neka svijet se sru_si
      D     Em   D   Em/C   D     D-Dsus4-Dsus4-D
kakva noc,o dodji osjeti  na tren

          C               F G           C   C-C A#-A# F-F
Jer djevojke su sve u gradu,samo cekaju nas
F  G  C          F   G  F           G
I one iste su ko svi mi,zeljne ljubavi

C      Am   F        G
svi na ples,puni smo dinamita
C      Am   F        G
svi na ples,ma ko za pamet pita
C      Am   F      G            F      G
svi na ples,ovo je nase vrijeme,ovo je pravo vrijeme

C      Am   F        G
svi na ples,puni smo dinamita
C      Am   F        G
svi na ples,ma ko za pamet pita
C      Am   F      G            F      G            C
svi na ples,ovo je nase vrijeme,ovo je prava noc za nas

Solo

...:::Onda se ponavlja cijela pjesma izpocetka, pa onda ovo ispod...:::...



      G   Am7    G  Am7 G
Kakva noc,   ludilo u   nama
      G   Am7       G  Am7 G
kakva noc,   svi na ulica__ma
      G   Am7    G  Am7 G
kakva noc
           G   Am7   G  Am7 G
Al kakva noc,     kakva no__c


Outro