Night Shift - Golden Brown

Album         : Undercovers
Transkripcija : Gvozden Conjic Kirk_H. konsal@mail.com


Intro:
E|----------------------------------|
H|----------------------------------|
G|----------------------------------|
D|----------------------------------| X4
A|------5-9-7---------5-9-7--7-7----|
E|--5h7-------9-5-5h7--------5-5----|

Strofa:
E|----------5--------|
H|------------5------|
G|--------------5----|
D|--7/9--9-----------|
A|--7/9--9-----------|
E|--5/7--7-----------|

Prelaz:
E|--------------------------------------|
H|--------------------------------------|
G|--------------------------------------|
D|--4-6-7-----------X3--4-6-9-----------|
A|--4-4-5---------------4-4-7--7-5-4-0--|
E|--2-4-5--5-4-2-0------2-4-7-----------|

Solo:  Pratnja 5X uvod + Prelaz
E|----------------------------------|
H|--10h9-10h9-10h9-10h9...--9h12~---|
G|----------------------------------|
D|----------------------------------|
A|----------------------------------|
E|----------------------------------|

E|----------------------------------|
H|--10h9-10h9-10h9...-10-9----------|
G|-------------------------9-9h11-9-|
D|----------------------------------|
A|----------------------------------|
E|----------------------------------|
                           |------------X3
E|----------------------------------------------------------------|
H|--12h10------12h10-----------------12-------10-12-14--10-10h12~-|
G|--------11-9-------11-9---11-13-14-------11---------------------|
D|----------------------------------------------------------------|
A|----------------------------------------------------------------|
E|----------------------------------------------------------------|

Uvod x4

Golden brown texture like sun
lays me down with my mind she runs
Throughout the night
No need to fight
Never a frown with golden brown

Uvod x2

Every time just like the last
On a ship tied to the mast
To distant lands
Takes both my hands
Never a frown with golden brown

Prelaz - Solo

Golden brown final temptress
Through the ages ship's heading west
From far away
Stays for a day
Never a frown with golden brown

Never a frown
With golden brown