Night Shift - Here Comes The Rain Again

Transkripcija : Djolle AmnesiA (republic_dragacevo@yahoo.com)
Info          : feat. Ivana (Negative)


Intro: 
(Lagano akucticna) Am F 2X

Strofa I:

Am
Here comes the rain again
F
falling on my head like a memory
G				  Am
falling on my head like new emotion.
Am
I want to walk in the open wind
F
I want to talk like lovers do
G
I want to dive into your ocean.
	Am	   A5
Is it raining with you?

REF:
F5		C5
Talk to me like lovers do
F5                C5
Walk with me like lovers do
F5	        C5	A5  G5
Talk to me like lovers do.

Strofa II:

Here comes the rain again
raining in my head like a tragedy
tearing me apart like a new emotion.
I want to breath in the open wind
I want to kiss like lovers do
I want to dive into your ocean.
Is it raining with you?


Intro
Strofa I
REF
Strofa II
REF
Solo (ritam krug Am F G)
REF
Strofa I(samo pola)
END

***VERZIJA 2***
Transkripcija: NEred_source


|---------------------------------------------------------------------
|-----10-15-13---------12-17-15---------12-17-12---------10-15-13-----
|--12----------12---14----------14---14----------15---12----------12--
|---------------------------------------------------------------------
|---------------------------------------------------------------------
|---------------------------------------------------------------------

solo:
|----------------------------------------------------------12----------
|-17^^--17-----------------11/12~~~^^r----------10--8--10--13p12--8--10
|-16^^--16--16^^r--14--16---------------14--12-------------------------
|----------------------------------------------------------------------
|----------------------------------------------------------------------
|----------------------------------------------------------------------

 ----------------------------------------------------------------------
 --10^^-----8-----------------------5----------------------------------
 --------9-----7^^r--7h8p7\5--------5----------------------------------
 -----------------------------5--7-----7--5\3--2-----------------------
 -------------------------------------------------3--2h3h2--------0----
 -----------------------------------------------------------5--3-------
 
 ---------------------------------------|\
 ---5------x(5)-x(5)--7^^r^^r^^rp5------||mrsko mi dalje!! improvizujte
 ---5------x(5)-x(5)--7^^r^^r^^rp5------||sami
 -x----x(5)-----------------------------||
 ---------------------------------------||
 ---------------------------------------|/