Night Shift - Livin` La Vida Loca

Transkripcija: Gvozden Conjic - Kirk_H  (konsal@mail.com)


Intro: main riff
E|-------------------------------------|-----------------------------------|
H|-------------------------------------|-----------------------------------|
G|----(5)---(5)---(3)-----(6)---(6)----|-(5)-----(5)---(5)---(3)---(3)-(1)-|
D|-----5-----5-----3-------6-----6-----|--5-------5-----5-----3-----3---1--|
A|-3-3-3-3-3-3-3-3-3-3-3-3-3-3-3-3-3-3-|--3-3-3-3-3-3-3-3-3-3-3-3-3-3-3-3-3|
E|-------------------------------------|-----------------------------------|

Riff1:
E|--------------------------|---------------------------|
H|--------------------------|---------------------------|
G|--------------------------|---------------------------|
D|-----1--3--3r-1--3h-1-----|--------------1------------|
A|--3--------------------3--|--3--3--3--3-----3--1--3~--|
E|--------------------------|---------------------------|

Prechours:
E|------------------|
H|------------------|
G|------------------|
D|-3--5--6--8--5----|
A|-3--5--6--8--5----|
E|-1--3--4--6--3----|

Chours:
E|-------------------------------------------------------------|
H|-------------------------------------------------------------|
G|-5-----5-----5-----5---5-----3-----3-----3-----5-5-5-5-5-5---|
D|-5-----5-----5-----5---5-----3-----3-----3-----5-5-5-5-5-5---|
A|-3-3-3-3-3-3-3-3-3-3-3-3-3-3-1-1-1-1-1-1-1-1-1-3-3-3-3-3-3---|
E|-------------------------------------------------------------|

Solo:
E|------------------------------------------|
H|--13-x-x-11-------------------------------|
G|------------13-x-x-12-x-x-10-x-x-9-etc...-|
D|------------------------------------------|
A|------------------------------------------|
E|------------------------------------------|

She's into superstition
Black cats and voodoo dolls
I feel a premonition
That girl's gonna make me fall

Riff1:

She's into sensation
New kicks in the candlelight
She's got a new addiction
For every day and night

Prechours:

She'll make you take your
Clothes off and go dancing in the rain
She'll make you live her crazy life
But she'll take away your pain
Like a bullet to your brain

Chours:

Upside inside out
She's livin' la vida loca
She'll push and pull you down
Livin' la vida loca
Her lips are devil red
And her skin's the color of mocha
She will wear you out
Livin' la vida loca
She's livin' la vida loca

Main riff:

Woke up in Zemun city
In a funky cheap hotel
She took my heart And she took my money
She must've slipped me a sleepin' pill

Prechours:

She never drinks the water
And makes you order
French champagne
Once you've had a taste of her
You'll never be the same
Cause she'll make you go insane

Chourse: Reff...etc

-----------------------------------
Solo nisam dalje skidao
improvizujte nesto pratnnja
je C5...inace se svira sa efektima
ali sa prigusenim zicama lepo zvuci
a ritam u refrenu hvatajte sami...