Night Shift - Missing

Transkripcija : Djolle AmnesiA (republic_dragacevo@yahoo.com)


I step off the train
I'm walking down your street again and past your door
but you don't live there anymore.
It's years since you've been there
but you've dissapear somewhere like outer space
you've found some better place.

And I miss you like the deserts miss the rain.

Could you be dead?
You always were two steps ahead of everyone
we'd walk behind while you would run.
I look up at your house
and I almost hear you shout down to me
where we always used to be.

Back on the train
I ask why did I come again?
Can I confess I've been hanging around your old adress?
The years have proved to offer nothing since you moved
you're long gone
but I can move on.

Solo bubnjevi
onda intro na A zici 5 5, 5/7 7, 7/8 8, 8/7 7 |4x
cela prva strofa kidanje 7 prag na G zici
Refren je krug D5 B5 C5 B5 4x
druga strofa samo D5
opet refren 4x
solo kao intro 4x pa onda nesto drugo
treca strofa se svira kao prva
refren 4x
outro (kao intro) pa nekoliko puta D5.

***VERZIJA 2***
Transkripcija: NEred_source


intro:
|--------------------------|---------------------------|\
|--------------------------|---------------------------||
|--------------------------|---------------------------||
|--------------------------|---------------------------||
|-5--5--5/7-7--8--8--8\7-7-|-5--5--5/7-7--8-8-8/10-10--||
|--------------------------|---------------------------|/

e|-5------------|meni ovako zvuci mnogo bolje od prethodno 
B|-6--6--8---5--|izbacene transkripcije. Ostalo je ispravno!!!
G|-7--7--9---6--|
D|-7--8--10--7--|
A|-5--8--10--7--|
E|----6--8---5--|

***VERZIJA 3***
Transkripcija: Gvozen Conjic - Kirk (konsal@mail.com)


Intro: Stim=Dropped D
D|----------------------------------|---------------------------------|
A|----------------------------------|---------------------------------|
F|--9-9-9/11-11-11/12--12-12/11-11--|--9-9-9/11-11-11/12-12-12/14-14--|
C|----------------------------------|---------------------------------| 2X
G|--7-7-7/9--9---9/10--10-10/9--9---|--7-7-7/9--9---9/10-10-10/12-12--|
D|----------------------------------|---------------------------------|

Dm
I step off the train
I'm walking down your street again and past your door
but you don't live there anymore.

Dsus2                        G             F
It's years since you've been there
           F*            Dsus2      G           F
but you've dissapear somewhere like outer space
                  F*
you've found some better place.


           D5  B5       C5               G5
And I miss you like the deserts miss the rain.  4X


Riff 1:
Could you be dead?
You always were two steps ahead of everyone
we'd walk behind while you would run.
I look up at your house
and I almost hear you shout down to me
where we always used to be.

           D5  B5       C5               G5
And I miss you like the deserts miss the rain.  4X

Solo:

Back on the train
I ask why did I come again?
Can I confess I've been hanging around your old adress?
The years have proved to offer nothing since you moved
you're long gone
but I can move on.

Riff 1:
D|----------------------------|
A|----------------------------|
F|----------------------------|
C|---------2-------2-----2----|  
G|---------2-------2-----2----|
D|-0-0-0-0---0-0-0---0-0------|

Solo:
D|----------------------------------|---------------------------------|
A|----------------------------------|---------------------------------|
F|--9-9-9/11-11-11/12--12-12/11-11--|--9-9-9/11-11-11/12-12-12/14-14--|
C|----------------------------------|---------------------------------| 2X
G|--7-7-7/9--9---9/10--10-10/9--9---|--7-7-7/9--9---9/10-10-10/12-12--|
D|----------------------------------|---------------------------------|

D|------------------------------------------------------|  
A|-12-13-10-12-10---------------------------------------| Dalje nisam skidao solo
F|----------------12-11-10-11-10----10------------------| improvizujte nesto sami
C|-------------------------------12----12-10------------| ...
G|--------------------------------------------12--------|
D|------------------------------------------------------|

Akordi:
   Dsus2 Dm    G    F    F*  D5 B5 C5 G5
D|---7----7----7----x---------------------|
A|---7----8----8----7----12---------------|
F|---9----9----7----7----12---------------|
C|---x----x----x----7----12---9--5--7-----|  
G|----------------------------7--3--5--7--|
D|-------------------------------------5--|

F* akord mozete svirati kao prirodni harmonic ton