Oktobar 1864 - Carte Blanche

Transkripcija: Ivan Djacic (djacic@yahoo.com)
Home         : http://2akordi.net


uvod  : Am F, Am F, Am F, Dm E   2x
uvod 2: Em D C 3x, Dm E

Am
Kao bol kao mit kao istina, izgleda sve
    G                       Am
Kao belo i crno i nestvarno, kao kisna kap
Am
Kao rec kao mit kao izazov, dolazis ti
    G                           Am
Tako hladan i dalek, neodredjen, prozirni lik

ref:
Am      F           Am       F
Ja vise nemam snage da ti se prepustim
Am      F           Dm          E
Ja vise nemam volje da ti snove podarim
Am      F          Am      F
Ja samo imam zelju da te zaboravim
Am      F            Dm         E            Am
I da ti pruzim osmeh kao zadnji blagoslov za put

< uvod2 >

I tako hodas i mislis i secas se kao kroz dim
Prvi sneg tako mek tako prozracan kao beli til
Kao glas kao trag kao nestanak jedinog sna
Neka glupa praznina se ogleda u ocima

< ref >
< solo = uvod2 >
< ref >

                 ^  ^
/--------------( *  * )---------------\
|=====================================|
|        < DjAkOn   StRaSnI >         |
|          djacic@yahoo.com           |
\-------------------------------------/



***VERZIJA 2***
Transkripcija: Kiselina (rukeus@yahoo.com)
Info         : Bass tab


Ide uvod koji je ujedno i refren:

prvi dio:
G------------------------------------------------
D---------------3---------------3---------------3
A-------------3---------------3---------------3--
E-5-0-5-0-1-5----5-0-5-0-1-5-----5-0-5-0-1-5-----

G--------------
D-----------5--
A-5-4-5-6-7---7
E--------------

ovaj dio ujedno mozete svirati na solu ili neku
improvizaciju slicnu:
G------------------------------------------------
D------------------------------------------------
A------------------------------------------------
E-5-0-5-4-3-0-3-4-5-0-5-4-3-0-3-4-5-0-5-4-3-0-3-4

G--------------
D-----------5--
A-5-4-5-6-7---7
E--------------

strofa:
G--------------------------------------------
D-------------5-6-7-6-5----------------------
A-------5-7-8----------8-7-5--------2-5-3-2--
E-5-7-8---------------------8-7-3-5--------3-

G--------------------------------------------
D-------------5-6-7-6-5----------------------
A-------5-7-8----------8-7-5------8-7-5------
E-5-7-8---------------------8-7-5-------8-5-7

G--------------------------------------------
D--------------------------5-6-7-------------
A-----2-5-3-2--------5-7-8-------------------
E-3-5--------3-5-7-8-------------------------

i opet na prvi dio.......... kiselina !!!!!!!
rukeus@yahoo.com