Ortodox Celts - A Moment ... Like A Longest Day

Transkripcija: Matthew Rivendel (rivendel@dublin.ie)



Intro:
     #Fm                               #Fm                      
E||---------------------------------|-------------------------------|
H||-------------10----------10------|-------------10----------------|
G||---------11------11----------11--|---------11------11------------|
D||-----11--------------11----------|-----11--------------11--------|
A||--9------------------------------|--9----------------------4--6--|
E||---------------------------------|-------------------------------|


  Esus2                      Dsus2                    
--------------------------|--------------------------|
-----------7--------7-----|-----------5--------5-----|
--------9-----9--------9--|--------7-----7--------7--|
-----9-----------9--------|-----7-----------7--------|
--7-----------------------|--5-----------------------|
--------------------------|--------------------------|


  Dsus2                      A                        
-----------0--------0-----|-----------0--------0-----|
--------3-----3--------3--|--------2-----2--------2--|
-----2-----------2--------|-----2-----------2--------|
--0-----------------------|--------------------------|
--------------------------|--4-----------------------|
--------------------------|--------------------------|


  Dsus2                      A                                
-----------0--------0-----|-----------0--------0------||
--------3-----3--------3--|--------2-----2--------2---||
-----2-----------2--------|-----2-----------2---------||
--0-----------------------|---------------------------||
--------------------------|--4------------------------||
--------------------------|---------------------------||

Sve je u osminama. Pratnja su neke orgulje (na klavijaturama),
i vec u drugom taktu prelaze na E (dok gitara i dalje ide #F).
Isto se svira i u refrenima, dok strofe i pratnja za solo idu:
                                 
E||--------------9----------9-------||
H||---------------------------------||
G||----------11-----11---------11---||
D||------11-------------11----------||
A||---9-----------------------------||
E||---------------------------------||

Tekst
--------------------

Verse 1:

A moment, like a longest day,
Sees, we last for ever.
And every look, you gave to me,
Still flashes in my mind.
And every breath, and every word,
When oyu said to me i'm goin'.
I lost myself, i lost my own,
I said...

Chorus:

I said, i'll go to heaven,
But i'm going to my own reason.
Keep my faith from you,
Keep my strength form you.
My lips are sealed for ever,
I've exiled myself wherever.
Save my soul from you,
Save myself from you.

Verse 2:

A Moment, not so far away,
But still, can feel it today.
Every word, i gave to you,
It's frozen deep inside.
All i want, to say is wrong,
All i want, to say is senseless.
Now the world, to me means nothing,
I said...

Chorus:

I said, i'll go to heaven,
But i'm going to my own reason.
Keep my faith from you,
Keep my strength form you.
My lips are sealedfor ever,
I've exiled myself wherever.
Save my soul from you,
Save myself from you.

Uzivajte uz muziku!
--------------------
Matthew Rivendel
rivendel@dublin.ie

***VERZIJA 2***
Transkripcija: Aca Urosevic (Aca_Urosevic@yahoo.com)


Pratnja(ovo je cela sema...u brzem delu mogu se svirati i puni akordi):
   Fism7
E------------------------------------------|
H---------10------10-------------10--------|
G-------9----9--------9--------9----9------|
D----11--------11-----------13---------13--|
A--9---------------------9-----------------|
E------------------------------------------|

       Esus2            Dsus2 
E----------------------------------------|
H------------7-----7----------5-----5----|
G----------9---9-----9------7---7-----7--|
D--------9-------9--------7-------7------|
A----6-7----------------5----------------|
E--9-------------------------------------|
  
   Dsus2            A 
E-------------------------------------|
H--------5-----5-----------5-----5----|
G------7---7-----7-------6---6-----6--|
D----7-------7---------7-------7------|
A--5----------------------------------|
E-------------------5-----------------|

   Dsus2            A 
E-------------------------------------|
H--------5-----5-----------5-----5----|
G------7---7-----7-------6---6-----6--|
D----7-------7---------7-------7------|
A--5----------------------------------|
E-------------------5-----------------|

(kapodaster na 5-om pragu, najverovatnije...nije neophodno)