Ortodox Celts - Foggy Dew

Transkripcija: Matthew Rivendel  (rivendel@dublin.ie)


Intro:
E||-------10-10/12--/14-12--------------------|
H||--/12--------------------/12-10--12~-------|
G||--------------------------------------9~---|
D||-------------------------------------------|
A||-------------------------------------------|
E||-------------------------------------------|

Verse:
Em              C         G       D     
It was down the glen, one Eastern morn',
Em        C    D    Em
To a city far, rode I.
Em            C           G       D
When Irland's lines, of a marchin man,
Em             C      D  Em
In squadroons, passed me by.
G                 D
No pipe did hum, no battle drum,
G         Em  D    Em
Did sound his drad-tattoo.
Em             C             G      D
But the Angels bells, on the Liffey swall,
Em          C   C     Em
Rang out in the foggy dew.

Solo:                                                                            
E||-------10-10/12---10---10/12--10-------------------------------------------------|
H||--/12----------------12----------12-10--10-10/12--------------8-12-10-8----------|
G||------------------------------------------------------9-9/11------------9--9---9~|
D||-------------------------------------------------12--------------------------12--|
A||---------------------------------------------------------------------------------|
E||---------------------------------------------------------------------------------|

Ovo ide dvaputa!
                                                                            
--------------7-7/10--8-7--------------------------15-14-12-10----10-10/12~---------|
-----7-7/8--8-------------10--10-10-10/12--8-10-12-------------12-------------------|
--/9--------------------------------------------------------------------------------|
------------------------------------------------------------------------------------|
------------------------------------------------------------------------------------|
------------------------------------------------------------------------------------|

Pa onda ponovo prvi deo soloa!

Solo i ostali tabovi su uradjeni za gitaru (originalno za bendzo),
I slide- ovi donekle simuliraju pravi zvuk (bendzo je piskaviji i ima pet zica).
Za vreme soloa akordi idu kao i za vreme stihova.
Cela pesma je u Em ,a ritmicki se svira otprilike ovako:

T---T-T---T-T-T-|T---T-T---T-T-T-|

U prevodu- 1/4, 1/8, 2/8, 1/8, 1/8, 1/8 po taktu!

Uzivajte uz muziku!
--------------------
Matthew Rivendel
rivendel@dublin.ie