Ortodox Celts - Green Roses

Transkripcija: Milan Pavlovic (paparaco@EUnet.yu)
Home         : http://www.yutabs.f2s.com


  Uvod: G

  Strofa: G, C, Am Em, C D

  Refren: G C, Am D, Em C, Am D

  Solo :
  G                G                C                C
E|----------------|----------------|----------------|----7-----------|
H|--------8---8---|(8)-------------|------------8---|10------10--8---|
G|7---9-----------|----------------|----7---9-------|----------------|
D|----------------|----------------|----------------|----------------|
A|----------------|----------------|----------------|----------------|
E|----------------|----------------|----------------|----------------|
  Am               Am               D                D
E|------------7---|----------------|------------7---|----------------|
H|10------10------|10--8-----------|10------10------|10--8-----------|
G|----------------|--------9---7---|----------------|--------9---7---|
D|----------------|----------------|----------------|----------------|
A|----------------|----------------|----------------|----------------|
E|----------------|----------------|----------------|----------------|
  Em               Em               C                C
E|--------10------|12------10------|----------------|----------------|
H|12----------12--|----12------12--|10--12--10------|----------------|
G|----------------|----------------|------------12--|9-------9---7---|
D|----------------|----------------|----------------|----------------|
A|----------------|----------------|----------------|----------------|
E|----------------|----------------|----------------|----------------|
  Am               Am               D                D                G
E|----------------|----------------|----------------|----7-----------|----
H|--------8---8---|(8)-------------|------------8---|10------10--8---|8---
G|7---9-----------|----------------|----7---9-------|----------------|----
D|----------------|----------------|----------------|----------------|----
A|----------------|----------------|----------------|----------------|----
E|----------------|----------------|----------------|----------------|----

  Korisceni akordi:
G -320033
C -X32010
Am-X02210
D -XX0232
Em-022000


***VERZIJA 2***
Transkripcija: Aca Urosevic - Aca_Urosevic@Yahoo.com


Akordi za pratnju:
G Em Am Em C D2x ref: G Em C D; Em C Am D

Tekst sam izostavio jer ga ne znam bas najbolje, a i
ovaj sajt valjda ne prima tekstove na engleskom.

Solo: U originalu naravno na violini, ali ja sam ga 
skinuo na gitari  i sasvim lepo zvuci
   G        Em            C             D
E-----------------5^7^5---5-5-7-5-------5-5-7-5-----|
H--3^5-8-8--3^5-8-------8---------8-5-----------8-5-|
G-------------------------------------7-------------|
D---------------------------------------------------|
A---------------------------------------------------|
E---------------------------------------------------|
                                                      |II put|
   Em                 C         Am      D             | G
E--7-7-12-7-10-7-12-7-5^7^5-----------5-------5^7^5---|-----|
H---------------------------8-5-3^5-8---3^5-8-------8-|-8---|
G-----------------------------------------------------|-----|
D-----------------------------------------------------|-----|
A-----------------------------------------------------|-----|
E-----------------------------------------------------|-----|


***VERZIJA 3***
Transkripcija: Nikolic


Uvod: G

       G                                       C
At the crack of the dawn thunder and lightning crossed the way
    Am              Em                C                   D
The shadow of night waited to see the bright light of the day
  G                                     C
Nobody saw his bitter tears through the dark veil of rain
    Am             Em                 C              D
The river of blood under his feet run wild again and again

Refren:
          G          C
The green roses will grow
      Am                   D
While green fields turn to red
     Em       C
Only memory remains
   Am           D
Of hero and his faith

He just stood and he stared with a sword in his hand
Under the bridge of rainbow's gold he fought for his land
The black crow stole his destiny and flew from the cross
Flyin' high, goin' so far to take his soul away