Ortodox Celts - Leads Me On

Transkripcija: Aca Urosevic - Aca_Urosevic@yahoo.com


Uvod i prelazi: G, C Am Dm G, C Am G C
Pratnja: C F C F G Am G F C F G, C F C F G Am G F C F C
Refren: F C Am F G C

Uvod i prelazi-tab:
   G       C                Am                  Dm              G       
E------------------10----10-12-15--12s10-------------------10-|
H--8s10-12-13-13~-----13-----------------13-10-10~---10-13----|
G--------------------------------------------------12---------|
D-------------------------------------------------------------|
A-------------------------------------------------------------|
E-------------------------------------------------------------|
               C              Am              G                   C   
E--10-10--------------------------------10-12-10--12-10^12^10----------|
H--------13-10-------------10-13--10^13------------------------13-13~~-|
G--------------12-12~-9-12---------------------------------------------|
D----------------------------------------------------------------------|
A----------------------------------------------------------------------|
E----------------------------------------------------------------------|

s-slide
^-hammer on ili pull off
~-vibrato