Ortodox Celts - Sindidun

Transkripcija: Aca Urosevic - Aca_Urosevic@yahoo.com


Uvod(4x):
   Am             C     Dsus2
E--------------------------------|
H--------1------------------3----|
G------2---2---0------0---2---2--|
D----2-------2------2---0--------|
A--0--------------3--------------|
E--------------------------------|

Ova sema Am C Dsus2 se ponovi u pratnji 3 puta, a
cetvrti put uz malu izmenu:
   Am             C      Dsus2
E------------------------------0--------------0----|
H--------1-------------------3---3---3------3------|
G------2---2---0------0----2-------2------2--------|
D----2-------2------2----0-------------0-----------|
A--0--------------3--------------------------------|
E--------------------------------------------------|

Posle se ponavlja ista sema, samo sto se sviraju puni akordi.

Ref: CF4x, CF4x, CF4x, CF3x Am G F

Solo(ne garantujem 100% tacnost, ali zvuci):
   Dm                      F         G             Dm                  F         G
 {------------------------------------alternate------------------------------------}
E--------------------------------------------|--------------------------------------|
H--6^5---5-----------------------------------|-5-5^6^5---5---------------8-8^6-5----|
G------7---7-5-5^7-5---4-4s5-5-5s4-------5---|---------7---7-5-7-5---4s5---------7--|
D--------------------7-------------7-5^7---7-|---------------------7----------------|
A--------------------------------------------|--------------------------------------|
E--------------------------------------------|--------------------------------------|
     Dm                      F           G
 {-------------------alternate---------------------}
E--------5------------------------------------------|
H--5-6-8---8-6-8-6-8-6-5-6-5-6-8-5-8---8-6-8-5-8--8-|
G------------------------------------7----------7---|
D---------------------------------------------------|
A---------------------------------------------------|
E---------------------------------------------------|
   Dm                  F                G
 {-------------------alternate--------------------------}
E--------------------------------------------------------|
H----------------5-6-5-----------------------------------|
G--7-7-7^5---5^7-------5-------5--------7-------7--------|
D----------7-------------3-3-3---3-3-3----5-5-5---5-5-5--|
A--------------------------------------------------------|
E--------------------------------------------------------|

zatim se vraca u osnovni tonalitet:
   Am  C Dsus2      Am C Dsus2
E------------|-------------|
H------------|-------------|
G--s14~~~~~--|--7-7s9~~~~~-|
D------------|-------------|
A------------|-------------|
E------------|-------------|

(na kraju pesme se samo ponavlja deo solaze u Dm F G i tako u fade out...)

Objasnjenje:
s-slide
^-hammer on ili pull off
~-vibrato


***VERZIJA 2***
Transkripcija: Zarko Cvetojevic - anstain@ptt.yu


Ovo je pocetak pesme meni zvuci ok
        a                   C
E||--------------------------------------------|
B||----------1--------------------------3------|
G||-------2-------2----2------0-------0----0---|
D||-----2-----------2-------2----0-------------|
A||--0-------------------3---------------------|
E||--------------------------------------------|

--------------------------------------------|
----------1--------------------------3------|
-------2-------2----2------0-------0----0---|
-----2-----------2-------2----0-------------|
--0-------------------3---------------------|
--------------------------------------------|

------------------------------------------------0----------|
----------1--------------------------3-------3-------3-----|
-------2-------2----2------0-------0----0---------------0--|
-----2-----------2-------2----0----------------------------|
--0-------------------3------------------------------------|
-----------------------------------------------------------|