Ortodox Celts - The Real Me

Transkripcija: Aca Urosevic - Aca_Urosevic@yahoo.com


Uvod: Fis

Deo teksta i akordi:
Hm
I'm a singer alcoholic
        G           D
And I'm mostly melanholic
     G                D 
I am wearin' just one trousers 
           G                A
And that's all that you can see
           Hm
I'm not so old as I am looking
     G               D 
I am married and I'm cooking
          G                 D 
I'm not a creature just for looking
            G                   A
There's the side that you can't see

Ref:
         D          A           D                 G
When you see me on TV It's just picture, it's not me
    D             A             D              A 
Try harder for to see when your beer is fairly good
    D                A             D           G  
I'm drinkin' all the time, and I'm happy for a while
   D              A             D            A
My woice is total crime, but my beer is wery good

D               A   
HAVE YOU UNTHERSTOOD?
D                A
WHILE I'M IN THE MOOD,
D                   A
WHERE'S THE FUCKIN' FOOD?
D                A
WHEN THE BEER IS GOOD?
itd...
Solo(svirat sve alternate):

   Em                   C      G     C      G    C             G   D             
E-----------------------------------------------------------------------|
H--8~-7~----------------------------------------------------------------|
G--------9----------------7-9^7--------7-9^7--------------------7---9---|
D----------9-9-7-9-9/-7-9------9-9-7-9------9--7---------7---7-9-9-9-9--|
A------------------------------------------------10-9-10--10------------|
E-----------------------------------------------------------------------|
   Em             C      G     C       G 
E--------------------------------------------|
H--------------------------------------------|
G--9----------------7-9^7--------7-9^7-------|
D----9-9-7-9-9/-7^9------9-9-7-9-------9--7--|
A--------------------------------------------|
E--------------------------------------------|

   Hm    Cis D     Em      Fis(power chords)
E-------------------------------|
H-------------------------------|
G--------6-6-7-6-7-9-7-9-9s11~~-|
D--9-7-9--9---------------------|
A-------------------------------|
E-------------------------------|

Ostalo su uglavnom varijacije na ovo!

Objasnjenje:

^-hammer on ili pull off
s-slide
/-bend
~-vibrato