Osmi Putnik - Glasno, Glasnije

Transkripcija: Vai


Intro :
E||-------------------------------|-------------------------------|
B||-------------------------------|-------------------------------|
G||-------------------------------|-------------------------------|
D||--6----------6-----------------|-------------------------------|
A||--4--4-4-4-4-4--4-4-4-4-7-6----|--7----------7----------7-6----|
E||----------------------------7--|--5--5-5-5-5-5--5-5-5-5-----7--|

------------------------------|---------------------------||
------------------------------|---------------------------||
------------------------------|---------------------------||
------------------------------|------------------4----5---||
--4------7-6----6------7-6----|--7------7-6------2----3---||
--2--2-2-----7--4--4-4-----7--|--5--5-5-----7-------------||


C#5
Imam usi od betona
E5*
dusu copora
A5         F#5    G#5
hektolitar rock n roll-a
C#5           prelaz  (c# H)
ispod tjemena
C#5
nesto fali u mojoj glavi
E5*
budi ubijeden
A5        F#5   G#5
ako si na mojoj strani
      A5                H5
nikad neces biti povrijeden

REF:
I samo
C#5
Glasno, glasnije
A5
ja neznam drugacije
F#5      G#5       C#5   prelaz (C# H)
ja nezna-am drugacije
C#5
rokaj do temelja
A5
od glave ka petama
F#5    G#5    A5
glasno, glasnije
H5               C#5
ja neznam drugacije

Jos ove noci
ti ces moci
da mi vjerujes
jer ti moras
da se rolas
i da ludujes

Nesto fali
u mojoj glavi
budi ubijeden
ako si na mojoj strani
nikad neces biti povrijeden

________
Napomena:
Gde je napisano prelaz, moze se odsvirati kao 5-ice ili samo na jednoj
(5-oj zici), poneki akordi se vise puta ponavljaju kao na primer u prelazu
(C# H) H se svira 4 puta, ali nisam to obelezavao ko odslusa pesmu shvatice
i sam kako da odsvira.

E5* se svira na 5-oj zici 7-om pragu.

***VERZIJA 2***
Transkripcija: Frozen (jkd_master5@hotmail.com)


LEGENDA:
*  - prigusiti zicu (mute)
v  - vibrato
s  - slide
8x - 8 puta
<> - artificial harmonics
b  - bend
p  - pull-off


1.solo
E|---------------------------------------------------7-5-4---------------------|
B|----8x----------------------------------4---7b(9)v-------7b(9)-5b(6)v-4b(5)--|
G|--9p8p6----4x----------------------4-6----6----------------------------------|
D|---------8p7p5---1S4v--------4-6-7-------------------------------------------|
A|-----------------------4-6-7-------------------------------------------------|
E|-----------------------------------------------------------------------------|

2. Solo                          A.H.
E|------------------------------------------------------------------|
B|---------------------------7-9-<9>--------------------------------|
G|---------------------6-8-9---------8-9v---------------------------|
D|--6-4---4-6v---6-7-9----------------------44-66-77-99-1111-1313---|
A|------4-----------------------------------------------------------|
E|------------------------------------------------------------------|

                   * *  * * * *                ** ** ** **   ****
E|-----------------------------------------------------------|
B|-----------------------------------------------------------|
G|-----------------------------------------------------------|
D|----1414-16-11v--13-13-14-13-11-13-14-16-14-11-------------|
A|-----------------------------------------------------------|
E|-----------------------------------------------------------|