Osvajaci - Mozda Nebo Zna

Transkripcija: pipss@mail.ru
Home         : http://2akordi.net



INTRO:
   Am         (C)               G                         
E|-------------------------|-----8--7----------------|
B|----------5--8--5--------|-----------8--5--------5-|
G|-------5-----------5-----|-----------------7--5----|
D|----7-----------------7--|--5----------------------|
A|-------------------------|-------------------------|
E|-5-----------------------|-------------------------|

INTRO: tab x3 + F  G


Am  G       Am  F  G
Oci mi tope se
Am           G              Am    F  G  
dok vetar sa stola pesme mi brise
Am   G        C G      Am
koji stih sad razum da krene
C       G         F
kada tu tebe nema vise.

Lice moje nebo je
i niz njega iste padaju kise
koji stih sad razum da krene
kada tu tebe nema vise.


C    G        Dm        Am
Kome sad usne ljubis do zore
C     G       Dm
mozda to nebo zna
C      G           Dm       Am
hladna noc sve dok misli mi gore
C          G         Am
dal' volim il' mrzim ja

Al negde jos cuvam sad
i oci zelene od gora vece
i ko ce sad nezno rame da mazi
niko to vise ne moze i nece.


***VERZIJA 2***
Transkripcija: superhik - vucijaglavica@yahoo.com


(tekst nije najtacniji)

 Am    G     Am   F G 
Oci mi tope se
 Am           G              Am   F G
Dok vetar sa stola pesme mi brise
 Am              C   G       Am
I koji stih sada razum da krene
 C    G            Am
Kada tu tebe nema vise

Lice moje nebo je
I niz njega iste padaju kise
I ko ce sad njezno rame da mazi
Kada tu tebe nema vise

AHC tj. A---0--2--3---

C     G          Dm        Am  AHC
Kome sad usne ljubis do zore
C      G       Dm
Mozda to nebo zna
C       G          Dm        Am  AHC
Hladna noc je dok misli mi gore
C        G         Am
Dal volim il mrzim ja

Al negde jos cuvam trag
I oci zelene od gora vece
I ko ce sad njezno rame da mazi 
Niko to vise nemoze i nece

***VERZIJA 3***
Transkripcija: iron


SOLO:
     C  G        Dm              Am
 E|------------------------------------|
 H|---5-----------6-5-5----------------|
 G|-----7-5-7~-5--------7-5-4h5p4------|
 D|-------------------------------7~---|
 A|------------------------------------|
 E|------------------------------------|

     C                    G                   Dm             Am 
 E|-----------------------------------------------------------------|
 H|-----------------------------------------------------------------|
 G|---7/9-9-10-10/12-10~-9--10/12-10-9----------------------9-------|
 D|------------------------------------12-10-12/14-12-10-12---10~---|
 A|-----------------------------------------------------------------|
 E|-----------------------------------------------------------------|
  
                           C             G                  Dm     
 E|-----------------------------------------------------------------|
 H|--------------------13--15^p13--------15-13-15-15^p13---------12-|
 G|-----------------12-----------14~-12------------------14~--14----|
 D|--------10-12-14-------------------------------------------------|
 A|---10-12---------------------------------------------------------|
 E|-----------------------------------------------------------------|

                               Am 
 E|-------------------------------------|
 H|13-15-13-12-13/17--13h15p13\12-------|
 G|-------------------------------14~---|
 D|-------------------------------------|
 A|-------------------------------------|
 E|-------------------------------------|

     C                   G             A5A5A5A5A5 H5   
 E|-------------------------------------------|
 H|---------------10----------------10--------|
 G|--------------9--9-12--7~-5-7-7/9--9-12^---|
 D|------9-10-12------------------------------|
 A|---12--------------------------------------|
 E|-------------------------------------------|

 jaci deo:    
      C5              G5              D5                A5  H5   C5
 E|------------------------------------------------------------------|
 H|------------------------------------------------------------------|
 G|--------------9---------------------------------------------------|
 D|---10~--10-12---10-12~--10-9-----------10-9--------------9~---10~-|
 A|-----------------------------12-10-12~------12-10-10h12~----------|
 E|------------------------------------------------------------------|
  
              G5           D5
 E|--------------------------------|
 H|--------------------------------|
 G|------9-------------------------|
 D|10-12---10-12~-10-9-10-10/12~---|
 A|--------------------------------|
 E|--------------------------------|
                         ponavljanje