Osvajaci - S Kim Cekas Dan

Transkripcija: Bekannn


Ova pesmu neki sviraju sa Am-Am9-Am7 ali moze i samo sa Am 
tu u pocetku!!!

Am
Topli trag na usnama
miris blag u grudima
C       G      F     Am
sve me na tebe podseca

Am
Nocas iz nistavila
opet krece lavina
C    G       F     Am
srce opet predoseca.

Dm Am            G      Am
Ooouoo sneg mi donosi zlo
Dm Am            F         G
ooouoo zar sam kriv ja za to.

C         G           C
Poslednji dah bi da dam
        G          Am
samo da mogu da znam
         F         G
kome sad dises u dlan
E7            Am
s kim cekas dan...

C         G           C
Sam sam i hvata me strah
         G       Am 
a s neba beli ce prah
        F         G
sakriti tragove sve
E7            Am   G F
da ne nadjem te. eeeeee

Neka svi me ostave
neka me zaborave
sve bih ja to preboleo
Ali necu nikada
sjaj iz tvoga pogleda
samo tebe sam voleo.

***VERZIJA 2***
Transkripcija: Gavrilovic "Yngwie" Milic


Am
Topli trag na usnama
miris blag u grudima
C       G      F     Am
sve me na tebe podseca

Am
Nocas iz nistavila
opet krece lavina
C    G       F     Am
srce opet predoseca.

Dm Am            G      Am
O  o sneg mi donosi zlo
Dm Am            F         G
O  0 zar sam kriv ja za to.

C         G           C
Poslednji dah bi da dam
        G          Am
samo da mogu da znam
         F         G
kome sad dises u dlan
E            Am
s kim cekas dan...

C         G           C
Sam sam i hvata me strah
         G       Am 
a s neba beli ce prah
        F         G
sakriti tragove sve
E            Am   G F
da ne nadjem te. eeeeee

Am
Neka svi me ostave
neka me zaborave
C       G      F     Am
sve bih ja to preboleo
Am
Ali necu nikada
sjaj iz tvoga pogleda
C       G      F     Am
samo tebe sam voleo.



Solo je vrlo lep i veoma lak. Tonovi su 100% tacni ali je potrebno da
saslusate stvar da bi ubacili neku finesu koja se vama svidja
E||------------------------------------------------------------------
B||--5----------------------------8----6----5---------5--------------
G||-----------7----5----4----5-------------------7---------5----7----
D||------------------------------------------------------------------
A||------------------------------------------------------------------
E||------------------------------------------------------------------

------------------------------------------8---------10---------
--5----------------------------------8---------8----------8----
-------7----4----5----7----4----5------------------------------
---------------------------------------------------------------
---------------------------------------------------------------
---------------------------------------------------------------
                                                             
--12----13----12----10----8----8----10----12----10----
------------------------------------------------------
------------------------------------------------------
------------------------------------------------------
------------------------------------------------------
------------------------------------------------------
                                                                             
--7----8----10----7----8----15----12----13----15----13----12----10----
----------------------------------------------------------------------
----------------------------------------------------------------------
----------------------------------------------------------------------
----------------------------------------------------------------------
----------------------------------------------------------------------

--13----12----10----------------||
--------------------12----13----||
--------------------------------||
--------------------------------||
--------------------------------||
--------------------------------||

***VERZIJA 3***
Transkripcija: Chivija


Uvod i strofa:
   Am                       G\Am  
e|-------0---0------0-----|------0---0-------0--------|
H|-------1-----3-1----3-1-|------1-----3-1-----3--1---|
G|-------2----------------|------2--------------------|
D|-------2----------------|------2--------------------|
A|-0----------------------|---------------------------|
E|------------------------|-3-------------------------|

   C            G             F  Am        Am7
e|------0--0---------3--3---------------|------0------|
H|------1--1---------0--0-----1--1----1-|--------1----|
G|------0--0---------0--0-----2--2----2-|----------0--|
D|---2---------------0--0-----3--2----2-|----2--------|
A|-3--------------2-----------3--0----0-|--0----------|
E|--------------3-----------------------|-------------|

Topli trag na usnama
Miris blag u grudima
Sve me na tebe podseca

Nocas iz nistavila
Opet krece lavina
Srce to predoseca

Dm    Am          G        Am
  Oooooo, sneg mi donosi zlo
Dm    Am          C        G
  Oooooo, zar sam kriv ja za to

C           G
 Poslednji dah bi da dam,
C         G
 Samo da mogu da znam
Am        F      G 
 Kome sad dises u dlan
E(7)           Am   G
 S' kim cekas dan

Sam sam i hvata me strah
A s' neba beli ce prah 
Sakriti tragove sve
Da ne nadjem te

Neka me svi ostave
Nek' me svi zaborave
Sve bi ja to preboleo

Ali necu nikada
Sjaj iz tvoga pogleda
Samo tebe sam voleo

================================================================
Ova tablatura nije 100% tacna ali mislim da tako najbolje zvuci
kad se svira, onako, u drustvu.