Parni Valjak - Dajte Mi Razlog

Transkripcija: kreso18


UVOD:uz solo ide pratnja:
     A  Asus4  E  D  A  Asus4 A


          A                      E
Dajte mi razlog,dobar razlog za ples
          D                      A
za sretnu pjesmu,neki razlog za smijeh.

              A                    E
K'o da dolazi vrijeme,vrijeme za zbogom,
            D                A     Asus4
ni ti vise samnom,niti ja sa tobom.


Refren:
         D
I kada je vise iza nas nego ispred nas
                A
ostaje-ljubav i vjera.
        E
I pjesma da dusu ispuni da joj ugodi,
                D      A    Asus4
pjesma sto tugu tjera.

           A              E
Dajte mi razlog,razlog za ples
           D                    A
upalite svjetla,da nadjem put do nje.

E
Jos uvijek si lijepa k'o i prije
                            A
jos te zelim i sanjam svaki dan.
A                  E
Al' gubim sve bitke ti mi okreces ledja
E                      D
a ja ne znam i ne mogu sam.

REF


***VERZIJA 2***
Transkripcija: Zoran123, zoran.cavuzic@kr.htnet.hr
Album        : Pretezno suncano


UVOD
-----------------------------------------------------------------------
-----------------5-5s7-5-------5-7-----------------------5-7-----------
---2-4-4s6---4s6-----------4s6-----4h6p4-2---4--2----4s6-----4h6p4--2--
-4--------------------------------------------4------------------------
-----------------------------------------------------------------------
-----------------------------------------------------------------------

SOLO
-------------------------------------------------------
---------------5-5S7-5------------5-7------------------
--2-4-4S6--4S6---------4S6-4--4S6-----4h6p4-2-4--2-----
-4---------------------------------------------4-------
-------------------------------------------------------
-------------------------------------------------------

--------------------------5-5----7b-5----5s7s5---------
----------------------5-7-----7-------7----------------
----2-4br2-4--2---4s6----------------------------------
-s4---------4------------------------------------------
-------------------------------------------------------
-------------------------------------------------------