Parni Valjak - Hajde Kazi Posteno

Transkripcija: Ivan Kapov (ikapov@acmt.hr) - 1.7.2004.



INTRO:
-svira se sa clean zvukom elektricne gitare

 _______jedanput (1x)_____   _____________________Ponavlja se (2x)__________________
           C#m                           A                            C#m
e--------------4-----------|----------------5-----------|----------------4-----------
h-----------5-----5--------|-------------5-----5--------|-------------5-----5--------
g--------6-----------6-----|----------6-----------6-----|----------6-----------6-----
d-----------------------6--|-------------------------7--|-------------------------6--
a--4-----------------------|----------------------------|--7--4----------------------
e--------------------------|--4h5-----------------------|----------------------------

VERSE 1. :

part I
            A                            E                         B
e----------------4-----------|--------------0-----------|---------------------|
h-------------5-----5--------|-----------0-----0--------|---------2--5--4-----|
g----------6-----------6-----|--------------------1-----|------4-----------4--|
d-------------------------6--|--------2--------------2--|---------------------|
a----------------------------|--------------------------|--4------------------|
e--4h5-----------------------|--0-----------------------|---------------------|

            C#m                           A                             E             
e----------------5-----------|----------------4-----------|--------------0-----------|
h-------------5-----5--------|-------------5-----5--------|-----------0-----0--------|
g----------6-----------6-----|----------6-----------6-----|--------------------1-----|
d-------------------------7--|-------------------------6--|--------2--------------2--|
a--7--4----------------------|----------------------------|--------------------------|
e----------------------------|--4h5-----------------------|--0-----------------------|

               B
    -------------------------|
    ---------2--5--4h5p4-----|
    ------4---------------4--|
    -------------------------|
    --4----------------------|
    -------------------------|



part II

GITARA 1.
  _____________________Ponavlja se (2x)__________________   ______jedanput (1x)_____
            C#m                           A                             E
e----------------5-----------|----------------4-----------|--------------0-----------|
h-------------5-----5--------|-------------5-----5--------|-----------0-----0--------|
g----------6-----------6-----|----------6-----------6-----|--------------------1-----|
d-------------------------7--|-------------------------6--|--------2--------------2--|
a--7--4----------------------|----------------------------|--------------------------|
e----------------------------|--4h5-----------------------|--0-----------------------|

GITARA 2. (svira preko ritma gitare 1.)
  Note: ovaj dio za gitaru 2. svirajte
  uz delay i reverb effect,
  ne previse, ali da se osjeti.
                                                                
    C#m     A            C#m        A         E
e----------------------------|--------7-------4-----4~----------|
h---5-5-p-4---4-s-2---2-h-5--|----4h5---5-4h5---4---5~------4~--|
g---6-6-p-4---4-s-2---2------|----------------------4~------4~--|
d---6-6-p-4---4-s-2---2------|----------------------------------|
a----------------------------|----------------------------------|
e----------------------------|----------------------------------|

    * odavde svira samo gitara 2.
    ---------4-2-0-------|-------------4-2-0-------------|
    ---------5-4-2-------|-------------5-4-2-------------|
    ---------6-4-2-------|-------------6-4-2-------------|
    -------------2-------|-----------------2-------------|
    ---2s4---------------|-----4s6-4--------------4s6-4--|
    ---------------------|--0----------------------------|

Text za verse 1 part I:

Jutro k'o svako
Dosadno i lijeno
Ne zelim otvoriti oci
Oko mene nista nema.

Text za verse 1 part II:
ou ouuu
Sto se desilo
ou ouuu
To nije normalno
Ne mogu si pomoci


VERSE 2. :

Note: druga kitica ima dosta slican ritam kao i prva, ali NIJE ista !
Neke razlike su zaista male dok je najzanimljivija stvar da
niske tonove na A i E zici u taktovima vise NE svira gitara, neko bass.
Tako kad svirate uzivo taj mali dio posla sad otpada na bassistu
dok vi i dalje gitarom svirate sve ostalo (D,G,H i e zice).
A ako svirate sami mozete drugu kiticu odsvirati na isti nacin
kao i prvu (stime da ipak pratite ove tabove dolje jer neke note su se promjenile),
znaci razlikujte sviranje ove kitice sami ili s bandom.

part I
gitara     C#m                           A                            E               
e----------------5-----------|----------------4-----------|--------------0-----------|
h-------------5-----5--------|-------------5-----5--------|-----------0-----0--------|
g----------6-----------5-----|----------6-----------6-----|--------------------1-----|
d-------------------------7--|-------------------------6--|--------2--------------2--|
              B
    ------------------------|
    ---------2--5--4--5--2--|
    ------4-----------------|
    ------------------------|

bass gitara
a--7--4----------------------|----------------------------|--------------------------|
e----------------------------|--4h5-----------------------|--0-----------------------|

    --4------------------|
    ---------------------|


gitara     C#m                           A                             E              
e----------------5-----------|----------------4-----------|--------------0-----------|
h-------------5-----5--------|-------------5-----5--------|-----------0-----0--------|
g----------6-----------6-----|----------6-----------6-----|--------------------1-----|
d-------------------------7--|-------------------------6--|--------2--------------2--|
              B
    -------------------|
    ---------2--4------|
    ------4------------|
    -------------------|


bass gitara
a--7--4----------------------|----------------------------|--------------------------|
e----------------------------|--4h5-----------------------|--0-----------------------|

    --4----------------|
    -------------------|

part II

GITARA 1.
  _____________________Ponavlja se (2x)__________________   ______jedanput (1x)_____
            C#m                           A                             E
e----------------5-----------|----------------4-----------|--------------0-----------|
h-------------5-----5--------|-------------5-----5--------|-----------0-----0--------|
g----------6-----------6-----|----------6-----------6-----|--------------------1-----|
d-------------------------7--|-------------------------6--|--------2--------------2--|
a--7--4----------------------|----------------------------|--------------------------|
e----------------------------|--4h5-----------------------|--0-----------------------|

GITARA 2. (svira preko ritma gitare 1.)
    C#m     A            C#m        A         E
e----------------------------|--------7-------4-----4~----------|
h---5-p-4----2------2s4------|----4h5---5-4h5---4---5~------4~--|
g---------------4------------|-----------------------------4~---|
d----------------------------|----------------------------------|
a----------------------------|----------------------------------|
e----------------------------|----------------------------------|

Text za verse 2 part I:

Tumaram bez cilja
Dusa i tijelo se razilaze
Oko mene sretni ljudi
U nebo odlaze


Text za verse 2 part II:

ou ouuu
Sto se desilo
ou ouuu
To nije normalno
Ne mogu si pomoci


CHORUS:

Refren je vrlo lak za svirati, obicni akordi.
Po ritmu ih okidajte jedanput ako svirate
s distorziranom gitarom ili pak dvaput ako je akusticna gitara u vasim rukama.

*u pravilu u refrenu gitare skoro uopce da niti nema, ovi akordi se izvode na
klavijaturama.


 E            B
Hajde kazi posteno
  F#m         B
Da li sam ti ikada
  E           B
Ucinio nesto nazao
  F#m         B
Hajde, hajde kazi

 E            B
Hajde kazi posteno
  F#m         B
Da li sam ti ikada
  E           B
Ucinio nesto nazao


F#m ***
Zar nije bilo jednostavnije,   (+++)
F#m ***
Da stisnes malo i priznas sve,
        E              B
Da ne cinis budalu od mene?
F#m ***
Zar sam to zasluzio?   (+++)
F#m***
Tvoje snove sam cuvao.
  E        B
Mrzim da priznam,
    F#m       C#m
Al' boli me, boli me.

Objasnjenje: F#m***  ove djelove svirajte na taj nacin
da brzo okidate F#m akord prema dolje upotrebljavajuci
lagani palm mute.
Kad poslusate pjesmu bit ce vam jasnije,
inace ovaj dio isto sviraju klavijature.

Jedini "gitara" dio u refrenu je ovaj oznacen s (+++),
dio je jako u pozadini i gotovo da se niti ne cuje,
a svira se kako je i stavljeno, tj. izmedu dva stiha:

e------------------|
h--2---2-----------|
g----4---4--4s6----|
d------------------|
a------------------|
e------------------|


SOLO:
Makar nije neka Satriani-Vai brzina primjetit cete da je ovaj solo dosta komplciran
za izvesti tocno, pogotovo zbog zanimljih hammer-on i pull-off sitnica,
zato za pravilno skidanje dobro poslusajte pjesmu, neka vam ritam ude u uho.
Ako vam je prekompliciran mozete slobodno nabaciti improvizaciju u C#m ljestvici
i uklopit ce se.
note: ritam i akordi su isti kao i u kiticama


e------------------------------|----------------------------------|
h-----8b9--10--9---9r8---------|--9h10p9-----------s9-------------|
g--------------------|---------|---------11-9-11s9----------------|
d--------------------|---------|----------------------------------|
a--------------------|---------|----------------------------------|
e--------------------V---------|--------------------------(7-5-0)-|
 *(naglo prekinite zadnji ton)                    *(tiho i lagano) 
                                                                   
    ---------------------------|------------------------------------------|
    -------9-12-9--12b14-------|------17b19----17p14h17p16---16p12h16p14--|
    ---------------------------|------------------------------------------|
    ---s11-------------|-------|------------------------------------------|
    -------------------|-------|------------------------------------------|
    -------------------|-------|------------------------------------------|
                       V
       *(ovaj bend na 14.
         polju malo zadrzite
         i otpustite samo za
         4-inu tona)


e-----------------------16s12---------------|-------------------------------------|
h-------------14--16s17------16--14---------|---------------------------12-12s14--|
g--9------11-------------------------13--9--|-----------13(ring)------------------|
d--11---------------------------------------|------9------------------------------|
a-------------------------------------------|-------------------------------------|
e-------------------------------------------|-----------------(0-0s7)-------------|

                                                 *(ring)=neka ostane ton

VERSE 3

Ovo zapravo niti nije cijela kitica vec samo njen standardni zavrsni dio.

  _____________________Ponavlja se (2x)__________________   ______jedanput (1x)_____
            C#m                           A                             E
e----------------5-----------|----------------4-----------|--------------0-----------|
h-------------5-----5--------|-------------5-----5--------|-----------0-----0--------|
g----------6-----------6-----|----------6-----------6-----|--------------------1-----|
d-------------------------7--|-------------------------6--|--------2--------------2--|
a--7--4----------------------|----------------------------|--------------------------|
e----------------------------|--4h5-----------------------|--0-----------------------|

GITARA 2. (svira preko ritma gitare 1. odozgo)
    C#m     A            C#m        A         E
e----------------------------|--------7-------4-----4~----------|
h---5-p-4----2------2s4------|----4h5---5-4h5---4---5~------4~--|
g---------------4------------|-----------------------------4~---|
d----------------------------|----------------------------------|
a----------------------------|----------------------------------|
e----------------------------|----------------------------------|

Text za verse 3:

ou ouuu
Sto se desilo
ou ouuu
To nije normalno
Ne mogu si pomoci


FINAL CHORUS:

 E            B
Hajde kazi posteno
  F#m         B
Da li sam ti ikada
  E           B
Ucinio nesto nazao
  F#m         B
Hajde, hajde kazi

 E            B
Hajde kazi posteno
  F#m         B
Da li sam ti ikada
  E           B
Ucinio nesto nazao
  E           B
Hajde, hajde kazi
  E           B
Hajde, hajde kazi
  E           B
Hajde, hajde kazi
  E           B
Hajde, hajde kazi (sto sam ti...)
  E           B
Hajde, hajde kazi (sto sam ti...)
  E           B
Hajde, hajde kazi (aaaaaaaaaa...)

     ---FADE OUT---





KOMPLETAN TEXT s akordima:

VERSE 1:

  C#m       A
Jutro k'o svako
   E        B
Dosadno i njemo
     C#m           A
Ne zelim otvoriti oci
    E          B
Oko mene nista nema


  C#m
ou ouuu
   A
Sto se desilo
  C#m
ou ouuu
   A
To nije normalno
 E          B
Ne mogu si pomoci

VERSE 2:

  C#m        A
Tumaram bez cilja
  E                B
Dusa i tijelo se razilaze
   C#m           A
Oko mene sretni ljudi
  E        B
U nebo odlaze

  C#m
ou ouuu
   A
Sto se desilo
  C#m
ou ouuu
   A
To nije normalno
 E          B
Ne mogu si pomoci


CHORUS

 E            B
Hajde kazi posteno
  F#m         B
Da li sam ti ikada
  E           B
Ucinio nesto nazao
  F#m         B
Hajde, hajde kazi

 E            B
Hajde kazi posteno
  F#m         B
Da li sam ti ikada
  E           B
Ucinio nesto nazao


F#m
Zar nije bilo jednostavnije,
F#m
Da stisnes malo i priznas sve,
        E              B
Da ne cinis budalu od mene?
F#m
Zar sam to zasluzio?
F#m
Tvoje snove sam cuvao.
  E        B
Mrzim da priznam,
    F#m       C#m
Al' boli me, boli me.


VERSE 3:

  C#m
ou ouuu
   A
Sto se desilo
  C#m
ou ouuu
   A
To nije normalno
 E          B
Ne mogu si pomoci


FINAL CHORUS:

 E            B
Hajde kazi posteno
  F#m         B
Da li sam ti ikada
  E           B
Ucinio nesto nazao
  F#m         B
Hajde, hajde kazi

 E            B
Hajde kazi posteno
  F#m         B
Da li sam ti ikada
  E           B
Ucinio nesto nazao
  E           B
Hajde, hajde kazi
  E           B
Hajde, hajde kazi
  E           B
Hajde, hajde kazi
  E           B
Hajde, hajde kazi (sto sam ti...)
  E           B
Hajde, hajde kazi (sto sam ti...)
  E           B
Hajde, hajde kazi (aaaaaaaaaa...)

     ---FADE OUT---


Zavrsni komentar:
-jos jedna majstorija od Husa i Akija, negdje tamo pocetkom 80-ih.
- zanimljivo je da se u HR nemogu nabaviti stari albumi od parnog valjka, ako netko
mozda ima sva izdanja na CD ili MP3 mediu nek mi se javi na E-mail!
-Hajde kazi posteno je zgodna stvar za LIVE izvodenje, samo da jos napomenem da u
zavrsnom FINAL CHORUSU u pozadini svira saxofon, racunajte na to ako volite izvoditi
pjesme cim blize originalu: ) Nadam se da kod ove ce vam moja transkripcija bar malo
pomoci.