Parni Valjak - Horoskop

Transkripcija: Davor Logaric, gitarista_ze@hotmail.com
Album        : Pretezno suncano
Home         : www.2akordi.net



e--------------------------------------|
h-------------------------10-8---------|
g-7--9-10-7--9-10-7--9-10------10-9-7--|
d--------------------------------------|3x
a--------------------------------------|
e--------------------------------------|


Dm*                      F             C           Dm    F C
Horoskop mi kaze da nam zvijezde nisu sklone ovaj tjedan

Naprezem si glavu da se sjetim kad je bio barem jedan
G               Dm
Ma kakvi crni planovi
            G            Dm
kad neznas sto ti sutra donosi
        F            C           Dm
Dan po dan , dan po dan , dan po dan


Probudis se jedno jutro , shvatis da je tvoje vrijeme proslo
Cekao si ono nesto . ono nesto nikad nije doslo
I kakvi crni planovi
Kada neznas sto ti sutra donosi
nemas pojma kud te rijeka odnosi

                              G
Ref: KOliko rupa treba da se ispuni
                         Dm
     Praznina koju nosis ti
             F             C             A
     Tko je kriv , tko je kriv , tko je kriv


uvod: 3x


Sanjao si cijeli zivot snove o sreci i slobodi
Bjezao od tuge , a pustio da te ona vodi
Sada gradom hodas nervozan
Imas , imas dojam da si izigran
Dan po dan . dan po dan , izigram

ref: Koliko rupa....

solo: (malo mojih improvizacija:))

e---------------------------------------- ----------------------------
h-10-----10-8---------------------------- 10------10-8----------------
g---10-7------9----9-----------5--------- ---10-7------9---9---5--7v--
d---------------10---7---3s5-7---5/3--5-  ---------------10--7--------
a---------------------------------------- ----------------------------
e---------------------------------------- ----------------------------

e----13-----p12-----10---------------10---12---13--13-12-10--
h-p10---p10-----p10--------10-15---10---10----10-------------
g--------------------------10--------------------------------
d------------------------------------------------------------
a------------------------------------------------------------
e------------------------------------------------------------
          legato
          ------
          |    |
e---15p-13-15-13----- ----------------------------------
h----------------15-- -20p--15-17-18-17-15--17~~~1------
g-------------------- ----------------------------------
d-------------------- ----------------------------------
a-------------------- ----------------------------------
e-------------------- ----------------------------------


Ma kakvi crni planovi.......

ref:

Uvod: 3X (THE END)