Parni Valjak - Kada Me Dotakne

Transkripcija: Frcky(frckyguitar@yahoo.com)/Pado



   Em            D             C                        2x
eI---0--0--------2---3p2-------0----0--0--0-----------------I
hI---0----0------3-------3-----1----1--1--1-----------------I
gl---0------0----2-------------0----0--0--0-----------------I
DI---2-----------0-------------2----2--2--2---0h2p0---------I
AI---2-------------------------3----3--3--3-----------------I
EI----------------------------------------------------------I
 
    Em           D             C
eI---0--0--------2---3p2-------0----0-----------------------I
hI---0----0------3-------3-----1----1-----------------------I
gl---0------0----2-------------0----0-----------------------I
DI---2-----------0-------------2----2-----------------------I
AI---2-------------------------3----3---3-2----0------------I
EI------------------------------------------3---------------I
 
    Am     C      G      D     Am        C   D     Em
EI----0------0-0-0----3-3-3---2-2-2----0---0------0----3p2----0--I
HI------1----1-1-1----3-3-3---3-3-3----1-----1----1----3------0--I
GI-----------0-0-0----0-0-0---2-2-2----2----------0----2------0--I
DI-----------2-2-2----0-0-0---0-0-0----2----------2----0------2--I  
AI-----------3-3-3----2-2-2------------0----------3-----------2--I
EI--------------------3-3-3-----------------------------------0--I
 
Em       D                C 
  Zlatna  slova,  njeno  ime
   Em     D       C
  Budi  rijeke  zaspale
   Em       D          C
  Svojim  dahom  pali  vatre
     Am                 D
  Iz  iskri  sto  su  ostale

    Em      D       C
  I  tako  kruzi  u  meni
  Em     D      C
  Kao  plima  vjecita
   Em      D           C
  Njezno  plete  moje niti
    Am               D
  I  u  toj  igri   uziva

               G    D    G
  A  kada  me  do...ta...kne     
       G     D    C
  Ja  pro...tr...nem
      G           D       C
  I  bogove  i  vragove  zovem
     Am                     D
  Ako  mogu  vrijeme  da  zaustave 

Em     D       C
  U  mojoj  dusi
    Em      D       C
  Tisucu  svijeca  sja
      Em       D               C
  I  sve  do  jedne,  sve  do  jedne
    Am       D
  Ona  je  upalila  

     
  Jer kada me .....


***VERZIJA 2***
Transkripcija: nex777 - nex777_2007@operamail.com

ovo je sa koncerta u ZeKaeM-u

Solo:
E|---------------------7-10--8-7h8p7---------------------------|
H|--5p3-5----3b-1------x-------------10-8h10p8-7-8-10-10s12----|
G|----------------2----x-------------------------------------9-|
D|-------------------------------------------------------------|
A|-------------------------------------------------------------|
E|-------------------------------------------------------------|

E|-----10s12-14-14b--14--12-10-12-10--10p7p0x-|
H|--12----------------------------------------|
G|--------------------------------------------|
D|--------------------------------------------|
A|--------------------------------------------|
E|--------------------------------------------|

E|---5-7-8---3h5p3--------------------|
H|--5-------5--------7b-5h7--5p3h5p3--|
G|------------------------------------|
D|------------------------------------|
A|------------------------------------|
E|------------------------------------|