Parni Valjak - Moja Je Pjesma Lagana

Transkripcija: Stojan Babic


Uvod:
|-------------|------------------|
|-------------|------------------|
|-------2-----|--------2-2-------|
|---2-----2-4-|----2-------4-2-4-|
|-4---4-------|--4---4-----------|
|-------------|------------------|

F#m           Hm
Tuzna je nasa ulica
C#          F#m
Otkada nisi tu,
F#m              Hm
Jer tuznu pjesmu pjevaju
C#          F#m
Oni sto ostaju.

E              A
Iste smo snove sanjali,
C#           F#m
Istom se nadali,
E             A
Drugi su igru vodili
C#          F#m
I snove ukrali.

Nije mi zao sto si otisla,
Znam da si morala.
Jedino boli, malena,
Sto se nisi javila.
Ne bih ti rekao "Ostani",
Ne bih ni probao,
Ne bih ti rekao "Volim te",
Samo - "Cuvaj se".

               Hm      F#m
Moja je pjesma lagana, polagana
  E       A
I tiho se ispija,
       Hm
Sasvim lagana
      F#m
I bez pitanja,
F#m - Fdim - F#m
Sto si otisla.


  F#m          Fdim        F#m
|-----------5-----------4----|
|--------7-----------3-------|
|-----6-----------4----------|
|--4-----------3-----------4-|
|--------------------------4-|
|--------------------------2-|


Kad krenes, srusi mostove,
Izbrisi tragove,
Meni pjesma ostaje
Da me smiruje.

Iste smo snove sanjali,
Istom se nadali,
Ja nisam smogao hrabrosti -
Da se odlucim.

Moja je pjesma lagana, polagana...

Pratnja i za prvi i za drugi solo je: F#m-Hm-E-A-F#m-Hm-C#-F#m

Solo 1
|----------------------------------------------------------9--12-10-9-------------|
|----------------5pbrbr--------2-3-2----------------------9-----------12-10p9-----|
|-2-4/6--4h6h7----------4--2-4-------4-2--1h2p1----4br--10---------------------11-|
|------------------------------------------------4--------------------------------|
|---------------------------------------------------------------------------------|
|---------------------------------------------------------------------------------|

Solo 2
|------4-5-------5-2-4------------------------------------------------------------|
|----7----------------------------------------------------------------------------|
|-/6--------6-7---------7------6-7-6----------------------------/6--4-------------|
|--------------------------7h9-------9-7-6s--/11----9h11-12-----------7-6-4-------|
|------------------------------------------------9----------11--------------------|
|---------------------------------------------------------------------------------|



***VERZIJA 2***
Transkripcija: ???
Poslao       : Faruk Jesenkovic (farukjesenkovic@hotmail.com)
Home         : http://galeb.etf.bg.ac.yu/~drs/muzika/


F#m           Hm    C#          F#m
Tuzna je nasa ulica otkada nisi tu
F#m              Hm      C#          F#m
jer tuznu pjesmu pjevaju oni sto ostaju
E              A        C#          F#m
Iste smo snove sanjali,istom se nadali
E              A        C#
Drugi su igru vodili, i snove ukrali.

F#m                Hm     C#             F#m
Nije mi zao sto si otisla,znam da si morala
F#m         Hm     C#              F#m
Jedino boli malena,sto se nisi javila
E              A      C#            F#m
Ne bi ti rekao ostani,ne bi ni probao
E              A        C#         F#m
ne bi ti rekao volim te,samo cuvaj se

               Hm     A          E
Moja je pjesma lagana,polagana
          A
i tiho se ispija
       Hm           A
Sasvim lagana i bez pitanja
A       C#  Fm
Gdje si otisla

F#m              Hm      C#m          F#m
Kad krenes srusi mostove,izbrisi tragove
F#m         Hm     C#         F#m
Meni pjesma ostaje,da me smiruje
E              A        C#m          F#m (*)
Iste smo snove sanjali,istom se nadali
E               A          C#         F#m
Ja nisam smogao hrabrosti ,da se probudim


Moja je pjesma ...

(*)

Moja je pjesma ...


P.S. : negdje na sredini pjesme ide ovaj SOLO:

e-----------------|-------------|-------------------|------------
H-----------------|-------------|-------------------|------------
G6P4--------4-4/6-|-------4-4/6-|--6P4---4----4/6-4-|------------
D----7-4-7--------|-4-7---------|------7------------|------6/7--9
A-----------------|-------------|-------------------|7/9---------
E-----------------|-------------|-------------------|------------


e-----------------|---5-----4-------2-------|---------------------
H-----------------|-------------------------|---------------------
G--------/6--9--6-|-6---6/4----6/4----/7P4--|--------4--/7P4------
D-7-9-------------|------------------------6|-/3--6----------6P3-4
A-----------------|-------------------------|---------------------
E-----------------|-------------------------|---------------------


e-----4-5-|------/5-|---4---|---------------------|--------|
H---7-----|---------|-7-----|---------------------|--------|
G-6-------|-6-7-----|-----7-|---4-6-7-6-4---4-----|-6-6-6--|
D---------|---------|-------|-7-----------7---7-6-|-------4|
A---------|---------|-------|---------------------|--------|
E---------|---------|-------|---------------------|--------|

e-------------|---------------
H-------------|---------------
G-4-6-7-7-7---|-/6-6-6-4------
D-----------6-|----------7-6-4
A-------------|---------------
E-------------|---------------



***VERZIJA 3***
Transkripcija: Adi adiazrael@hotmail.com


Intro:
  F#m
E|------------------------|--------------------------|
B|------------------------|--------------------------|
G|-----------2------------|-----------2--2-----------|
D|--------2-------2--4~---|--------2--------4--2--4--|
A|-----4------------------|-----4--------------------|
E|--2---------------------|--2-----------------------|


***VERZIJA 4***
Transkripcija: Anton Stefan - Anton.stefan@zg.htnet.hr


intro:
e|--------------------------|--------------------------------
H|--------------------------|--------------------------------
G|-----------------2--------|------------------2-2-----------
D|---------2---------2-4----|----------2------------4-2-4----
A|----3/4----4--------------|-----3/4-----4------------------
E|--------------------------|--------------------------------

solo:
e|--------------------------|--------------------------------
H|---2-3-2------------------|--------------------------------
G|------------4-2-4-4/6~----|----2-4-4/6~--6P4-----4-5/6-4~--
D|--------------------------|-------------------7------------
A|--------------------------|--------------------------------
E|--------------------------|--------------------------------

e|-------------------------------------|--------5------3/4-----2----------
H|-----------------------------5-------|---------0--------0-------2/3P0---
G|---------------3/4----4-5/6-----6----|----5/6---6--------6------------1~
D|------4-6-7--------7-----------------|----------------------------------
A|-6/7---------------------------------|----------------------------------
E|-------------------------------------|----------------------------------
                                      bu      bu
e|---------------------------|------4-5>------5>----4-----
H|---------------------------|----7---------------7-------
G|----------4-6/7-4----------|--6---------6-7---------7---
D|--4/6-7-------------7-6-4~-|----------------------------
A|---------------------------|----------------------------
E|---------------------------|----------------------------

e|--------------------------|-----------------------------
H|--------------------------|-----------------------------
G|--2-4-4/6-7-6-4---4-------|---5/6--6-6----4-6-7-7-------
D|----------------7---7-6---|------------4~---------6~----
A|--------------------------|-----------------------------
E|--------------------------|-----------------------------

e|----------------------|----------4-----
H|----------------------|------------5---
G|--5/6-6-6-4-2H4P2-----|--------4-------
D|------------------4---|--4-6-7---------
A|----------------------|----------------
E|----------------------|----------------



***VERZIJA 5***
Transkripcija: Hrvoje Brnas (hrvoje.brnas@zg.htnet.hr)


Solo 2:39

Prvih pet nota je zapravo kraj refrena, pa solo pocinje tek nakon
udarca C# distorziranog akorda
                Solo = > \/                                                I
                                                                           I
E--------------------------------------------------------------------------
H--------------------------------------------------------------------------
G-6\2-----2--4--4/6~~-----2--4--4b6~--4h6h7~---9br-9b--9-------------------
D------4----------------------------------------ovo-------9----------------
A-----------------------------------------------brzo-----------------------
E--------------------------------------------------------------------------

I
 2:50                                                                      I
E---------------------------------------9-12-10-9--------------------------
H---------3--------------------------11x----------12-10p9------------------
G--2h4h6----6-4-2----------4b6-4~~--11x--------------------11~~------------
D------------------6--4~~--------------------------------------------------
A--------------------------------------------------------------------------
E--------------------------------------------------------------------------

3:00
Dio sa distorzijom
E--------------------------------------------------------------------------
H--------------------------------------------------------------------------
G-------11--13--14~~/--6--7~/14~~~11\13~-----------------------------------
D--\11------------------------------------12~--------11-12-11--------------
A----------------------------------------------12-14----------14-12-11\----
E--------------------------------------------------------------------------

3:10                                 3:17
E--------------------------------------------------------------------------
H--------------------------------------------------------------------------
G--------4h6h7-------------------------------------------------------------
D-11------------6~~-9^11-9-------------------------------------------------
A-----9\-------------------12-11-9------2h3p2-0----------------------------
E------------------------------------------------2-0-2---------------------


Legenda:

\,/=Slide prema gore ili dolje

4h6= hammer on

3p2= pull off

11x= znaci drzite prst na tom pragu, ali iznad praga, tako da se cuje
     samo prigusen zvuk

11~~= vibrato ili duze trajanje note

4b6= "bendanje zice" na 4 pragu tako da zvuk zvuci kao nota na 6.
9^11= isto kao i prethodno