Parni Valjak - Molitva

Transkripcija: ????
Poslao       : Mario (marioloncar@freemail.com)
Home         : http://fly.cc.fer.hr/~janje


Uvod : C Am F G C

                        E
   K'o da nemam snage da nastavim
F                   C     G
   kao da je pjesmi kraj
C                    E
   lagano se topim i nestajem
Am                    C          F
   a moje pjesme vise nisu ljubavne
         C      G7          F     G  C
   gubim vjeru, a ona mi je sve.
                                 E
   A onda svane novi dan i ja se zaljubim
Am       C          F
   U ovo nebo iznad nas
F/E  Dm           G              C         C7
   i sunce sto se smjesi k'o kad majka oprasta
Dm              G    Fm
   djeci sto su bila nestasna
                       C
   Al' kazi kako dalje kad,
                    Am                    F
   kad se nebo zamraci, kad se spuste oblaci,
                   G
   kad se sunce ne vidi. Al' kazi kako dalje
   C               Am                     F
   kad ljubav nestane, kad se rijeci istrose,
                 G  G G
   kad se natrag ne moze.
       D                      F#
   Mama, zar si lagala kad si govorila
Bm          D              G
   da dobro uvijek pobjedjuje
G/F#      Em            A            D     D Dmaj7 D7
   i kada ne znas kojim putem, treba putem lju-ba- vi,
     Em            A         Gm
   i da smo ispred boga isti svi.
                       D
   Al' kazi kako dalje kad,
                    Bm                    G
   kad se nebo zamraci, kad se spuste oblaci,
                     A
   kad se sunce ne vidi. Al' kazi kako dalje
   D               Bm                     G
   kad ljubav nestane, kad se rijeci istrose,
                  A
   kad se natrag, kad se natrag vise ne moze,
        G                A     Bm            Ddim
   tako malo vremena nam ostaje, kada stisnu godine,
       D      A            Gm  C  D Bb C D
   bez ljubavi, sve prestaje.


   (slijedi solo, akordi : izmjenjuju se G i D dva
   puta,treci put umjesto D slijedi Bm, nakon toga
   ide dva  puta Bb C D, na kraju ide Bb C A)


   Al' kazi kako dalje kad,
                    Bm                    G
   kad se nebo zamraci, kad se spuste oblaci,
                     A
   kad se sunce ne vidi. Al' kazi kako dalje
   D               Bm                     G
   kad ljubav nestane, kad se rijeci istrose,
                  A
   kad se natrag, kad se natrag vise ne moze,
        G                A     Bm            Ddim
   tako malo vremena nam ostaje, kada stisnu godine,
       D      A            Gm  C  D
   bez ljubavi, sve prestaje
       D      A            Gm  C  D Bb C D Bb C D
   bez ljubavi, sve prestaje.

***VERZIJA 2***
Transkripcija: Ivan Kapov (ikapov@acmt.hr) - 6.7.2004.
Album        : Budenje (1994.)


Struktura pjesme "Molitva":
-INTRO
-VERSE  1.
-CHORUS 1.
-VERSE  2.
-CHORUS 2.
-SOLO
-FINAL CHORUS
-OUTRO


INTRO:

-Uvodni akordi su C Am F G C , s time da se pocetni C akord pocinje svirati u isto
 vrijeme kad i zadnji ton na "uvodnom riffu".
-akorde u uvodu sviramo kao C5,A5...
-Ritam je lagan, svirajte s dosta distorzije tako
 da vam akordi "traju" od jednog do drugoga.
-Svira se na dvije gitare, prva svira ritam, druga
 solo kao sto je oznaceno dolje. Obadvije pod distorzijom.
-kad svirate solo gitaru u uvodu nastojte sve tonove bar malo "shake"-ati da dobijete
 zvuk kao na pjesmi.

 PAZI: ako svirate na akusticnoj gitari
 svaki ritam akord svirajte s 4 udarca.

-na uvodnom riffu kad opalite zadnji ton u isto vrijeme pocinje svirati C5 akord

  _______uvodni riff__________
e------------------------------|
h------------------------------|
g------------------------------|
d------------------------------|
a-------0-3-2-3----------------|
e----s3------------------------|

gitara I. (ritam)
  C5                       A5                     F5                             
e------------------------|----------------------|-------------------------------|
h------------------------|----------------------|-------------------------------|
g-5----------------------|----------------------|-------------------------------|
d-5----------------------|-7--------------------|-3-----------------------------|
a-3----------------------|-7--------------------|-3-----------------------------|
e------------------------|-5--------------------|-1-----------------------------|

    G5                    C5 C5
    ---------------------|-----|
    ---------------------|-----|
    ---------------------|-5-5-|
    -5-------------------|-5-5-|
    -5-------------------|-3-3-|
    -3-------------------|-----|


-akordi traju od jednog do drugog, ne prekidajte im zvuk.

gitara II. (solo)

e-----------------------|-----------------------|-------------------------------|
h-----------------------|-----------------------|-------------------------------|
g-9----9---s10-----9----|-9----9-----10----9----|-10----10----s12(hold)-10p9----|
d---10---10----10----10-|---10----10----10---10-|----10----10----------------10-|
a-----------------------|-----------------------|-------------------------------|
e-----------------------|-----------------------|-------------------------------|

    --------------------------|
    --------------------------|
    -------9----10----9-------|
    ----10---10----10---10----|
    -10-----------------------|
    --------------------------|

VERSE 1.

AKUSTICNA GITARA-ritam
-nakon uvoda krecemo na prvu kiticu, ritam svira akusticna gitara u pozadini, nema
 potrebe da nju prebacujemo
 na tablature jer ritam je ujednacen i vec nakon prvog slusanja ga imate.
-neke akorde svirajte po 4 neke po 2 puta, samo pratite pjesmu i dolje oznake.

-akorde hvatate normalno, ali kad trzate desnom rukom nastojte hvatati visoke zice
 posto se donje i ne cuju previse, primjer:

    E
E|--0----|
B|--0----|
G|--1----|
D|--2----|
A|--2----|
E|--0----|

tako hvatate E dur
to znamo, ali vi ga svirajte samo na prve 4 zice, tj dublje A i E izostavite:

    E
E|--0----|
B|--0----|
G|--1----|
D|--2----|
A|-------|
E|-------|



                        E
   K'o da nemam snage da nastavim
F                   C     G
   kao da je pjesmi kraj
C                    E
   lagano se topim i nestajem
Am                    C          F
   a moje pjesme vise nisu ljubavne
         C      G7          F     G  C
   gubim vjeru, a ona mi je sve.

                                 E
   A onda svane novi dan i ja se zaljubim
Am       C          F
   U ovo nebo iznad nas
F Em Dm           G              C         C7
   i sunce sto se smjesi k'o kad majka oprasta
Dm              G    Fm
   djeci sto su bila nestasna

   
Ajmo sad na detalje za ekektricnu...

ELEKTRICNA GITARA:
-u prvoj kitici elektricna gitara ostaje pod distorzijom i ne igra kljucnu ulogu u
 davanju ritma vec njome stvarate samo male "fill-ove" kojima se pjesma dodatno
 uljepsava, cuju se u pozadini uz ritam akusticne gitare.
- oznake (*),(**) i (***) povise teksta pokazuje na kojem djelu stiha se sviraju ovi
  djelovi na elektricnoj gitari.

                       *
K'o da nemam snage da nastavim


                          * E5
                        E|------------------0---|
                        B|------------------0---|
                        G|------1-p.m.------|---|
                        D|--2~--2-p.m.--2---|---|
                        A|--2~--2-p.m.------|---|
                        E|--0~--------------V---|
                                        (odsvirati brzo, kratko i prema gore)

Kad pocne akusticna s ritmom, na elektricnoj s distorzijom odsvirajte E5 i pustite ton,
ako imate tremolo bar malo ga i "zadrmajte". S palm mute-om (oznaka p.m.) lagano, cak
i kad okinite ton malo popustite pritisak na desnoj ruci tako da dobijete zvuk kao na
originialu.

             *                       **
               kao da je pjesmi kraj

  *                             **
E|-----------------------|    E|---------------------------------------------|
B|-----------------------|    B|---------------------------------------------|
G|--------------------5--|    G|----------------------------------5~---------|
D|--------------------5--|    D|-----------------------2------0---5~---------|
A|--3~-------------------|    A|-----3--------------3-------------3~---------|
E|--1~-------------------|    E|---3--------------1------2s3-----------------|





              *                     **
   lagano se topim i nestajem,      i moje pjesme vise nisu ljubavne

  *                           **
E|---------------------|    E|------------------------------------------------|
B|--5~---5-------------|    B|-(1)--------------------------------------------|
G|--5~---5-------------|    G|--2----0-2--0-5--0-2-0-(0)----------------------|
D|--5~-----------------|    D|--2---------------------3-----------------------|
A|---------------------|    A|------------------------------------------------|
E|---------------------|    E|------------------------------------------------|






*                   **
     gubim vjeru, a ona mi je sve

  *                                 **
E|-----------------------|        E|-------------------------------------------------|
B|-----------------------|        B|-------------------------------------------------|
G|--2h3-5--5p3-2---------|        G|---(0)-------------------------------------------|
D|-----------------------|        D|----2--------------------------------------------|
A|-----------------------|        A|----3---------------------5----------------------|
E|-----------------------|        E|--------------------------3----------------------|
                                                              |
                                                              |
                                                              V
                           (svira se na rjeci "sve" gore iz stiha)







     *                    **                 ***
             A onda svane novi dan i ja se zaljubim

  *                          **                      ***
E|---------------------|    E|------------------|   E|-----------------------|
B|---12----------------|    B|----1-s-3----1-1--|   B|---------------5~-3p0--|
G|---12----5-----------|    G|----0--------0-0--|   G|-1-pm---1s2------------|
D|---12----5-----------|    D|------------------|   D|-2-pm------------------|
A|--(10)---3-----------|    A|------------------|   A|-2-pm------------------|
E|---------------------|    E|------------------|   E|-----------------------|


              *
U ovo nebo iznad nas,    i sunce sto se smjesi k'o kad majka oprasta   djeci sto
su bila nestasna

* (ovaj dio se inace svira na klavijaturama,
   ali s distorzijom mozete odsvirati slican zvuk.
   Ili na akusticnoj uz akorde "simulirate" zvuk klavijatura,
   oba nacina su prikazana dolje. Stime da zadnji ton ili
   akorde dajte da traje duze)

e------------------------------|         E|--1--0--1----------------|
h------------------------------|         B|--1--0--3----------------|
g------------------------------|         G|--2--0--2----------------|
d--3--2--0---------------------|    ili  D|--3--2--0----------------|
a------------------------------|         A|--3--2--0----------------|
e------------------------------|         E|--1--0-------------------|

CHORUS 1.
-ponovo distorzija ulazi u prvi plan, svira se kao i INTRO, akordi traju od jednog
do drugog.

                    C
   kazi kako dalje kad,
                    Am                    F
   kad se nebo zamraci, kad se spuste oblaci,
                   G
   kad se sunce ne vidi. Al' kazi kako dalje
   C               Am                     F
   kad ljubav nestane, kad se rijeci istrose,
                 G  G G
   kad se natrag ne moze.


gitara I. (ritam)
  C5                       A5                     F5                             
e------------------------|----------------------|-------------------------------|
h------------------------|----------------------|-------------------------------|
g-5----------------------|----------------------|-------------------------------|
d-5----------------------|-7--------------------|-3-----------------------------|
a-3----------------------|-7--------------------|-3-----------------------------|
e------------------------|-5--------------------|-1-----------------------------|

    G5
    --------------------------|
    --------------------------|
    --------------------------|
    -5------------------------|
    -5------------------------|
    -3------------------------|

gitara II. (solo)

e-----------------------|-----------------------|-------------------------------|
h-----------------------|-----------------------|-------------------------------|
g-9----9---s10-----9----|-9----9-----10----9----|-10----10----s12(hold)-10p9----|
d---10---10----10----10-|---10----10----10---10-|----10----10----------------10-|
a-----------------------|-----------------------|-------------------------------|
e-----------------------|-----------------------|-------------------------------|

    --------------------------|
    --------------------------|
    -------9----10----9-------|
    ----10---10----10---10----|
    -10-----------------------|
    --------------------------|

gitara I. (ritam)
  C5                       A5                     F5                             
e------------------------|----------------------|-------------------------------|
h------------------------|----------------------|-------------------------------|
g-5----------------------|----------------------|-------------------------------|
d-5----------------------|-7--------------------|-3-----------------------------|
a-3----------------------|-7--------------------|-3-----------------------------|
e------------------------|-5--------------------|-1-----------------------------|
    G5 G5 G5
    --------------------------|
    --------------------------|
    --------------------------|
    -5-5-5--------------------|
    -5-3-3--------------------|
    -3-3-3--------------------|

gitara II. (solo)

e-----------------------|-----------------------|-------------------------------|
h-----------------------|-----------------------|-------------------------------|
g-9----9---s10-----9----|-9----9-----10----9----|-10----10----s12(hold)-10p9----|
d---10---10----10----10-|---10----10----10---10-|----10----10----------------10-|
a-----------------------|-----------------------|-------------------------------|
e-----------------------|-----------------------|-------------------------------|

    --------------------------|
    --------------------------|
    --------------------------|
    --------------------------|
    -10-----------------------|
    --------------------------|


VERSE 2.
- u drugoj kitici prelazimo za jedan cijeli stupanj vise.

AKUSTICNA GITARA-ritam
- ritam sada drze klavijature, akusticna gitara se gotovo niti ne cuje sada.
  A ako je ipak svirate onda svirajte isti ritam samo s novim akordima.

    D                      F#
   Mama, zar si lagala kad si govorila
Bm          D              G
   da dobro uvijek pobjedjuje
G/F#      Em            A            D     D    Dmaj7   D7
   i kada ne znas kojim putem, treba putem lju - ba  -  vi,
     Em            A         Gm
   i da smo ispred boga isti svi


ELEKTRICNA GITARA
- nakon refrena onaj cudan zvuk bi mogli izvuci iz gitare samo ako dobro nastimate
  efekte, ukljucite kratki delay i dosta veliki reverb koji ce vam dati osjecaj
  zvuka iz daljine.
  Ako ste odredili dovoljnu kolicinu napravite sljedece, tj. ton lagano spustate, ali
  povucite ga rubom trzalice ne prstom (tzv. "pick slide effect"):

                        E|--------------------------------|
                        B|--------------------------------|
                        G|--------------------------------|
                        D|-----12-slide down--------------|
                        A|--------(pick slide)------------|
                        E|--------------------------------|



                     *
        Mama, zar si lagala kad si govorila , da dobro uvijek pobjedjuje

                         *
                        E|------10------------------------|
                        B|--s10---------------------------|
                        G|---------s11-9--s11-slide down--|
                        D|--------------------------------|
                        A|--------------------------------|
                        E|--------------------------------|


         *                                  **
   i kada ne znas kojim putem, treba putem ljubavi, i da smo ispred boga isti svi.

  *                                              
E|-----0---------------------------|             
B|----0----------------------------|             
G|--(0)----------------------------|             
D|--2------------------------------|             
A|---------------------------------|             
E|---------------------------------|             
-samo povucite prema gore lagano                 

  **
E|------------------------------------------|
B|--------------------------------10--------|
G|--12b14-12b14-12b14r12p11p9---x---11-9h11-|
D|----------------------------11------------|
A|------------------------------------------|
E|------------------------------------------|


CHORUS 2.
- kao i druga kitica i ovaj refren ima sve akorde (i solo pratnju )dignute
  za jedan stupanj u usporedbi s prvim.
- distorzirana gitara se cuje mnogo manje i u prvom planu su sada klavijature.

                      D
   Al' kazi kako dalje kad,
                    Bm                    G
   kad se nebo zamraci, kad se spuste oblaci,
                     A
   kad se sunce ne vidi. Al' kazi kako dalje
   D               Bm                     G
   kad ljubav nestane, kad se rijeci istrose,
                  A
   kad se natrag, kad se natrag vise ne moze,
        G                A     Bm            Ddim
   tako malo vremena nam ostaje, kada stisnu godine,
       D      A            Gm  C  D Bb C D
   bez ljubavi, sve prestaje.

gitara I. (ritam)
  D5                       B5                     G5                             
e------------------------|----------------------|-------------------------------|
h------------------------|----------------------|-------------------------------|
g-7----------------------|----------------------|-------------------------------|
d-7----------------------|-9--------------------|-5-----------------------------|
a-5----------------------|-9--------------------|-5-----------------------------|
e------------------------|-7--------------------|-3-----------------------------|
        A5
        --------------------------|
        --------------------------|
        --------------------------|
        -7------------------------|
        -7------------------------|
        -5------------------------|


gitara II. (solo)
e-----------------------|-----------------------|-------------------------------|
h-----------------------|-----------------------|-------------------------------|
g-11---11---s12---11----|-11---11---12----11----|-12----12----s14(hold)-12p11---|
d---12---12----12----12-|---12----12----12---12-|----12----12----------------12-|
a-----------------------|-----------------------|-------------------------------|
e-----------------------|-----------------------|-------------------------------|

--------------------------|
--------------------------|
-------11---12----11------|
----12---12----12---12----|
-12-----------------------|
--------------------------|


gitara I. (ritam)
  D5                       B5                     G5                             
e------------------------|----------------------|-------------------------------|
h------------------------|----------------------|-------------------------------|
g-7----------------------|----------------------|-------------------------------|
d-7----------------------|-9--------------------|-5-----------------------------|
a-5----------------------|-9--------------------|-5-----------------------------|
e------------------------|-7--------------------|-3-----------------------------|
    A5
    --------------------------|
    --------------------------|
    --------------------------|
    -7------------------------|
    -7------------------------|
    -5------------------------|

gitara II. (solo)
e-----------------------|-----------------------|-------------------------------|
h-----------------------|-----------------------|-------------------------------|
g-11---11---s12---11----|-11---11---12----11----|-12----12----s14(hold)-12p11---|
d---12---12----12----12-|---12----12----12---12-|----12----12----------------12-|
a-----------------------|-----------------------|-------------------------------|
e-----------------------|-----------------------|-------------------------------|

    --------------------------|
    --------------------------|
    -------11---12----11------|
    ----12---12----12---12----|
    -12-----------------------|
    --------------------------|

gitara I. (ritam)

  G5           A5         B5         Ddimm
e-----------------------|-------------1---------|
h-----------------------|-------------0---------|
g-----------------------|-------------1---------|
d-5------------7--------|-9-----------0---------|
a-5------------7--------|-9---------------------|
e-3------------5--------|-7---------------------|
-ovi akordi traju u pola krace, zato su u jednom taktu po 2.


  D     D      A     A    Gm   Gm     C     C      D     D      D     D
e-2-----2------0-----0--|--3----3-----0-----0---|--2-----2------2-----2---------|
h-3-----3------2-----2--|--3----3-----1-----1---|--3-----3------3-----3---------|
g-2-----2------2-----2--|--3----3-----0-----0---|--2-----2------2-----2---------|
d-0-----0------2-----2--|--5----5-----2-----2---|--0-----0------0-----0---------|
a-0-----0------0-----0--|--5----5-----3-----3---|--0-----0------0-----0---------|
e-----------------------|--3----3-----0-----0---|-------------------------------|
- nakon Ddimm akorda sviraju klavijature, a gitaru mozete svirati
  s clean zvukom kao napisano povise.


SOLO:

ritam gitara:
-zapravo je niti nema, ritam drze klavijature i bubnjevi, ali naravno mozete koristiti
 gitaru za ritam koji je sljedeci (broj ispred akorda oznacava koliko puta ga trzate,
 razmaci NE oznacavaju pauzu, samo su tu da izgleda konstrukcija preglednija):

 4x G
 4x D

 4x G
 4x D

 4x G
 4x Bm

 2x Bb
 2x C
 4x D

 2x Bb
 2x C
 4x D

 2x Bb
 2x C
 4x A


solo gitara:
-korisitie laganu overdrive distorziju za prvi dio, kasnije cete efekt promjeniti.
-dobro obratite pozornost na ritam u pjesmi, preslusajte ga dosta puta jer jedino
 tako cete uspjeti svaki ton ukomponirati da vam zvuci kao original.
-ne svirajte ovaj solo monotono, kao naprimjer solo pratnju na uvodu ili refrenu,
 radite na tome da gotovo svaki ton koji malo duze traje shake-ate da bi dobili
 specificni "bluesy" zvuk s kojim Parni Valjak svira.

Neke oznake i primjeri:

 2s4     -od 2 povucete ili slide-ate ("s") do tona 4

  s4     -samo povucete prstom do tona 4, ne od neke odredene note kao povise

10b12r10 - zavrnete ili bend-ate ("b") zicu od 10 do 12 i onda ju otpustite ili
           relese-ate ("r"), ovo se sve izvodi u JEDNOM trzaju !

 7sd     - nakon sta odsvirate ton 7 spustajte ga dolje niz vrat ili slide down (sd)

            Bb             C             D                               G    
e-----------------------|-----------------------|----------------------------|
h-----------------------|-----------------------|-----------3h5--3s5s3-0-3~--|
g------------3----------|--5-------------7------|------2s4-------------------|
d--5-3-2-0---3----------|--5-------------7------|----------------------------|
a------------1----------|--3-------------5------|----------------------------|
e-----------------------|-----------------------|----------------------------|
                             D
    -----------------------------|
    --10----10b12r10-10b12r10-10-|
    -----------------------------|
    -----12----------------------|
    -----------------------------|
    -----------------------------|

                                     G                      
e-----------------------|----------------------------------|
h-----------------------|--8b10----10-12-------------------|
g--11r9--7-7------------|------------------9-7--9-7-s7sd---|
d------------7sd--------|----------------------------------|
a-----------------------|----------------------------------|
e-----------------------|----------------------------------|

                                     D
    --------------------|--------------------------|
    --------------------|--------------------------|
    --7-7s9-------------|--------------------------|
    --7-7s9-7-----------|------------7-------------|
    -------(5)--7b9r7p5-|--7-5-5h7s9-|-------------|
    --------------------|------------|-------------|
                                 V
                (neposredno nakon sto uhvatite ovaj ton,
                 palm mute-ajte ga i slideom ga prekinite)

              G                                                      
e-----------------------|--------------------|----------------------|
h-----------------------|--------------------|----------------------|
g----------14b16r14-----|-14p12-13p12-12p11--|--11b12-11----9-9b11--|
d--12--12---(polako)----|--------------------|-----------12---------|
a-----------------------|--------------------|----------------------|
e-----------------------|--------------------|----------------------|
       Bm
    --------------------------|
    --------------------------|
    -----9--------------------|
    -s12------12--------------|
    -------10-----------------|
    --------------------------|

     Bb              C                        
e------------------------|-------------------|
h------------------------|-------------------|
g---------9-9b10r9-10b12-|-9b10r9------------|
d--9-9s12----------------|--------12p10------|
a------------------------|-------------------|
e------------------------|-------------------|
     D
    -------------------------------------------------|
    -------------------------------------------------|
    -9s14-16-14-----s14-16-14-----s14-s14------------|
    ------------12------------12----------12---------|
    -------------------------------------------------|
    -------------------------------------------------|

- sad mjenjate zvuk gitare, neka distorzija bude jaca, dodajte joj delay i reverb,
  na pojaculu bi bilo zgodno da pojacate treble i contour ako ih imate, to ce dati
  gitari jos ostriji zvuk za neke brze dionice koje sljede.
      Bb                                        C                   
e-----------------------------------------|------------------------|
h----------------------------13b15-(hold)-|-15-17b18-17--s20-20-15-|
g-14h15p14h15p14h15p14h15p14--------------|------------------------|
d------|----------------------------------|------------------------|
a------|----------------------------------|------------------------|
e------V----------------------------------|------------------------|

(odsvirajte jako brzo
 ovaj hammer i pull of dio izmedu 14 i 15,
 prst vam mora doslovno titrati, kako bi vam
 bolje docarao kojom brzinom se prelazi
 samo nek kazem da taj dio traje
 svega 0,3 sekunde)
 
      D
    -18b20-18-17-15-13s15------|
    ----------------------15---|
    ---------------------------|
    ---------------------------|
    ---------------------------|
    ---------------------------|

      Bb                                       C                    A    
e-----------------------------------------|-----------------------------|
h----------------------------13b15-(hold)-|-s17-15-18~--17-17p15s13-----|
g-14h15p14h15p14h15p14h15p14--------------|-------------------------14--|
d-----------------------------------------|-----------------------------|
a-----------------------------------------|-----------------------------|
e-----------------------------------------|-----------------------------|
                                    D
    -15b17-(hold)---17r15------15b17--|
    ---------------------------(hold)-|
    ----------------------------------|
    ----------------------------------|
    ----------------------------------|
    ----------------------------------|
           Al' kazi kako dalje kad
           

-kad solo zavrsi istodobno pocinje i zadnji refren, dok Aki pjeva razvuceno "kad"
 vi drzite ton koji se treba automatski utopiti u klavijaturama koje tad
 nastavljaju voditi refren i privoditi pjesmu kraju.


FINAL CHORUS:
                      D
   Al' kazi kako dalje kad,
                    Bm                    G
   kad se nebo zamraci, kad se spuste oblaci,
                     A
   kad se sunce ne vidi. Al' kazi kako dalje
   D               Bm                     G
   kad ljubav nestane, kad se rijeci istrose,
                  A
   kad se natrag, kad se natrag vise ne moze,
        G                A     Bm            Ddim
   tako malo vremena nam ostaje, kada stisnu godine,
          D      A            Gm  C  D
   bez ljubavi, sve prestaje
       Bb     C             D
   bez ljubavi, sve prestaje.

gitara I. (ritam)
  D5                       B5                     G5                             
e------------------------|----------------------|-------------------------------|
h------------------------|----------------------|-------------------------------|
g-7----------------------|----------------------|-------------------------------|
d-7----------------------|-9--------------------|-5-----------------------------|
a-5----------------------|-9--------------------|-5-----------------------------|
e------------------------|-7--------------------|-3-----------------------------|
    A5
    --------------------------|
    --------------------------|
    --------------------------|
    -7------------------------|
    -7------------------------|
    -5------------------------|

gitara II. (solo)

e-----------------------|-----------------------|-------------------------------|
h-----------------------|-----------------------|-------------------------------|
g-11---11---s12---11----|-11---11---12----11----|-12----12----s14(hold)-12p11---|
d---12---12----12----12-|---12----12----12---12-|----12----12----------------12-|
a-----------------------|-----------------------|-------------------------------|
e-----------------------|-----------------------|-------------------------------|

    --------------------------|
    --------------------------|
    -------11---12----11------|
    ----12---12----12---12----|
    -12-----------------------|
    --------------------------|

gitara I. (ritam)
  D5                       B5                     G5                             
e------------------------|----------------------|-------------------------------|
h------------------------|----------------------|-------------------------------|
g-7----------------------|----------------------|-------------------------------|
d-7----------------------|-9--------------------|-5-----------------------------|
a-5----------------------|-9--------------------|-5-----------------------------|
e------------------------|-7--------------------|-3-----------------------------|
    A5
    --------------------------|
    --------------------------|
    --------------------------|
    -7------------------------|
    -7------------------------|
    -5------------------------|

gitara II. (solo)
e-----------------------|-----------------------|-------------------------------|
h-----------------------|-----------------------|-------------------------------|
g-11---11---s12---11----|-11---11---12----11----|-12----12----s14(hold)-12p11---|
d---12---12----12----12-|---12----12----12---12-|----12----12----------------12-|
a-----------------------|-----------------------|-------------------------------|
e-----------------------|-----------------------|-------------------------------|

    --------------------------|
    --------------------------|
    -------11---12----11------|
    ----12---12----12---12----|
    -12-----------------------|
    --------------------------|

gitara I. (ritam)

  G5           A5         B5         Ddimm
e-----------------------|-------------1---------|
h-----------------------|-------------0---------|
g-----------------------|-------------1---------|
d-5------------7--------|-9-----------0---------|
a-5------------7--------|-9---------------------|
e-3------------5--------|-7---------------------|

  D     D      A     A    Gm   Gm     C     C      D     D      D     D
e-2-----2------0-----0--|--3----3-----0-----0---|--2-----2------2-----2---------|
h-3-----3------2-----2--|--3----3-----1-----1---|--3-----3------3-----3---------|
g-2-----2------2-----2--|--3----3-----0-----0---|--2-----2------2-----2---------|
d-0-----0------2-----2--|--5----5-----2-----2---|--0-----0------0-----0---------|
a-0-----0------0-----0--|--5----5-----3-----3---|--0-----0------0-----0---------|
e-----------------------|--3----3-----0-----0---|-------------------------------|

             Bb            C             D
e-----------------------|-----------------------|
h-----------------------|-----------------------|
g------------3----------|--5-------------7------|
d--5-3-2-0---3----------|--5-------------7------|
a------------1----------|--3-------------5------|
e-----------------------|-----------------------|

OUTRO:
Ritam guitar
             Bb            C             D
e-----------------------|-----------------------|
h-----------------------|-----------------------|
g------------3----------|--5-------------7------|
d------------3----------|--5-------------7------|
a------------1----------|--3-------------5------|
e-----------------------|-----------------------|

SOLO guitar
-svira se u isto vrijeme s gornjim zavrsnim ritmom (Bb, C, D)

e----------------------------|----------------------------|
h-----------3--5s6s5s3--6b8--|--8r6---5--3--3s5--3-(hold)-|
g--2--3--5-------------------|-(brzo)---------------------|
d----------------------------|----------------------------|
a----------------------------|----------------------------|
e----------------------------|----------------------------|


Kompletan tekst s akordima:

   INTRO
   C Am F G C

   VERSE1.

                E
   K'o da nemam snage da nastavim
F                   C     G
   kao da je pjesmi kraj
C                    E
   lagano se topim i nestajem
Am                    C          F
   a moje pjesme vise nisu ljubavne
         C      G7          F     G  C
   gubim vjeru, a ona mi je sve.
                                 E
   A onda svane novi dan i ja se zaljubim
Am       C          F
   U ovo nebo iznad nas
F Em Dm           G              C         C7
   i sunce sto se smjesi k'o kad majka oprasta
Dm              G    Fm
   djeci sto su bila nestasna


   CHORUS1.
                       C
   Al' kazi kako dalje kad,
                    Am                    F
   kad se nebo zamraci, kad se spuste oblaci,
                   G
   kad se sunce ne vidi. Al' kazi kako dalje
   C               Am                     F
   kad ljubav nestane, kad se rijeci istrose,
                 G  G G
   kad se natrag ne moze.


   VERSE2.

       D                      F#
   Mama, zar si lagala kad si govorila
Bm          D              G
   da dobro uvijek pobjedjuje
G/F#      Em            A            D     D    Dmaj7   D7
   i kada ne znas kojim putem, treba putem lju - ba  -  vi,
     Em            A         Gm
   i da smo ispred boga isti svi.


   CHORUS2.

                   D
   Al' kazi kako dalje kad,
                    Bm                    G
   kad se nebo zamraci, kad se spuste oblaci,
                     A
   kad se sunce ne vidi. Al' kazi kako dalje
   D               Bm                     G
   kad ljubav nestane, kad se rijeci istrose,
                  A
   kad se natrag, kad se natrag vise ne moze,
        G                A     Bm            Ddim
   tako malo vremena nam ostaje, kada stisnu godine,
       D      A            Gm  C  D Bb C D
   bez ljubavi, sve prestaje.


   SOLO

        G  D  G  D  G Bm

        Bb C D  Bb C D

        Bb C A


   FINAL CHORUS
                        D
   Al' kazi kako dalje kad,
                    Bm                    G
   kad se nebo zamraci, kad se spuste oblaci,
                     A
   kad se sunce ne vidi. Al' kazi kako dalje
   D               Bm                     G
   kad ljubav nestane, kad se rijeci istrose,
                  A
   kad se natrag, kad se natrag vise ne moze,
        G                A     Bm            Ddim
   tako malo vremena nam ostaje, kada stisnu godine,
       D      A            Gm  C  D
   bez ljubavi, sve prestaje
       Bb     C             D
   bez ljubavi, sve prestaje.


   OUTRO

   Bb C D



Zavrsni komentar:

-"Molitva", sa mozda jednog od najpopularnijih Valjkovih albuma "Budenje"
iz 94' je njihov prepoznatljiv zvuk, mjesavina savrseno ukomponiranih
klavijatura sa elektricnim gitarama.

-Savrsen tekst s savrsenom muzikom, meni subjektivno jedna od najboljih njihovih
i opcenito domacih rock pjesama, koja izgleda jos i bolje ako joj "udete" u
detalje, sretno.