Parni Valjak - Natasa

Transkripcija: pipss@mail.ru
Album        : Glavnom ulicom (1977)
B=H


  RIFF1              RIFF2
  n.c.                Em               B7
E|---------------   |-----3-3-2-2-5-5-------------------|
B|---------------   |----------------------5-5-4-4------|
G|---------------   |------------------------------5-5--|
D|---------------   |-2-2--------------2-2--------------|
A|-----0-1h2-----   |-----------------------------------|
E|-0-3-------3-0-   |-----------------------------------|


Uvod: RIFF1

Em             Bb     Em
Radi u Nami od 7 do 3,
Em                         Bb     Em
samo jos, samo jos jedna u gomili,
Em                       Bb      Em
bez one prave sanse, bez izgleda,
C5         B5  + RIFF1
isuvise obicna.

Vjerovala je u ljubav k'o na filmu (svasta),
gutala "Vikend" ljubavne romane,
njen Valentino bio sam ja,
jos uvjek nema svoga covjeka.

E  A   B
Ma_lo, _malo van vremena,
E  A         B
ma_lo je van prostora,
E  A        B
do gluposti postena,
C#m         A
jedina me razumjela,
C#m         A    RIFF2
jedina me razumjela.

Em  B7  Em  B7 // RIFF2 x2 + prelaz C#m-A-B + A|-2--------
Natasa, Natasa                                E|---3-2-0--

Cesto sam znao navratiti malo, nocu,
do njenog stana u predgradju,
sjecam se, uvjek je bilo tako toplo kod nje,
i njene dobre vibracije.

Nikada nije gurala ruke u gacice,
nikada nije gutala pilule,
i nikada je nisam vidio bijesnu,
ipak zasluzuje pjesmu.

Malo, malo van vremena,
malo je van prostora,
do gluposti postena,
jedina me razumjela,
jedina me razumjela.

Natasa, Natasa, Natasa

SOLO:
    C#m A   B     C#m  A  B          C#m A   B    n.c.
E|--------------------12..-------------------------------------------|
B|--9---9---------9...........-------9---9---------------------------|
G|--11b-11b-11~---11b.....11br--11-9-11b-11b-11~---------------------|
D|--------------------------------------------------------------4\---|
A|------------------------------------------------------3-2-1~--2\---|
E|------------------------------------------------2-1-0--------------|


Malo, malo van vremena ...

Natasa, Natasa, Natasa, Natasa
Natasa, Natasa, Natasa, Natasa

OUTRO:
   Em     B   Em        B        x puta + KRAJ
E|--------------------------------------|---------
B|--------------------------------------|---------
G|*------------------------------------*|---------
D|*-----------2~-4~-2~--1-2-1-2-1------*|---------
A|--------2~----------------------2-----|-3-2-1~--
E|-0--2-3---------------------------3-2-|---------