Parni Valjak - Neda

Transkripcija: ????
Poslao       : Mario (marioloncar@freemail.com)
Home         : http://fly.cc.fer.hr/~janje


Dm                     Am
Neki dan u pasazu na popodnevnoj kavi
  Dm              Am
Naletjeh na Nedu, ljubav skolskih dana
Dm              Am
Zarila i palila ona je tada
Dm          Am       G     E       Am
Dosta se promijenila nakon tolikih godina.

Prica mi da rinta u nekoj lijevoj firmi
Da pomalo posustaje, nasmrt se dosaduje
Ja jos uvijek sam, a jako nemam nista protiv
Da svratimo na pice do njenog stana.

Dm Am  Dm            Am
Neda, nije vise tako ohola
Dm Am  G    E          Am
Neda, mnogo lakse sada kaze da.

Gledam je dok se svlaci, kak to sada strucno radi
I pitam je dal' se sjeca onih dana
Kako nas je redom odbijala tada
A ona se smije i kaze, pusti, bila sam mlada.

Neda, nije vise tako ohola
Neda, mnogo lakse sada kaze da.


***VERZIJA 2***
Transkripcija: charis
Poslao       : charis


intro: solo gitara i bass sviraju sljedecu dionicu
       koja se na bassu ponavlja kroz skoro cijelu
       pjesmu

   Dm            Am
A--5-5-5-5-5-3-5-------------|
E----------------5-5-5-5-5-3-| par puta pa prelaz

prelaz: na prelazu ritam gitara ostaje na G dok bas i
        solo  gitara sviraju ovu liniju


A-----2--5--2-------------------- |
E---3---------3---5-5-5-5-5-3-5-- |

Dm                     Am
Neki dan u pasazu na popodnevnoj kavi
  Dm              Am
Naletjeh na Nedu, ljubav skolskih dana
Dm              Am
Zarila i palila ona je tada
G (prelaz)
Dosta se promijenila nakon tolikih godina.

Prica mi da rinta u nekoj lijevoj firmi
Da pomalo posustaje, nasmrt se dosaduje
Ja jos uvijek sam, a jako nemam nista protiv
Da svratimo na pice do njenog stana.

Dm Am  Dm            Am
Neda, nije vise tako ohola
Dm Am  G    E          Am
Neda, mnogo lakse sada kaze da.

Gledam je dok se svlaci, kak to sada strucno radi
I pitam je dal' se sjeca onih dana
Kako nas je redom odbijala tada
A ona se smije i kaze, pusti, bila sam mlada.

Neda, nije vise tako ohola
Neda, mnogo lakse sada kaze da.


***VERZIJA 3***
Transkripcija: DavoR


Ovo je verzija sa koncerta "Bez struje"

uvod : svirajte ga skupa sa bas gitarom
E-------------------------------------|
H-------------------------------------|
G-------------------------------------|
D-------------------------------------|
A-0-3-5-3-5-7-5-3---0-3-5-3-5-7-3-----|
E-----------------5----------------5--|

E----------------------------------------|
H----------------------------------------|
G----------------------------------------|
D----------------------------------------|
A-0-3-5-3-5-7-5-3-------2-5-2------------|
E-----------------5V--3-------3--5-5-3-5-|

Dm                     Am
Neki dan u pasazu na popodnevnoj kavi
  Dm              Am
Naletjeh na Nedu, ljubav skolskih dana
Dm              Am
Zarila i palila ona je tada
G                                     Am   Am G Am
Dosta se promijenila nakon tolikih godina.

Prica mi da rinta u nekoj lijevoj firmi
Da pomalo posustaje, nasmrt se dosaduje
Ja jos uvijek sam, a jako nemam nista protiv
Da svratimo na pice do njenog stana.

Dm Am  Dm            Am
Neda, nije vise tako ohola
Dm Am  G    E          Am
Neda, mnogo lakse sada kaze da.

Gledam je dok se svlaci, kak to sada strucno radi
I pitam je dal' se sjeca onih dana
Kako nas je redom odbijala tada
A ona se smije i kaze, pusti, bila sam mlada.

Neda, nije vise tako ohola
Neda, mnogo lakse sada kaze da.

solo: posto sam takav gitarista pa uvijek improviziram
improviziro sam neke djelove ovog sola ali meni jako
melodicno zvuci...

E----------------------8-------------------|
H-0-8-10-8-10---10-10-----8-10-10-8-10-8---|
G----------------------------------------9-|
D------------------------------------------|
A------------------------------------------|
E------------------------------------------|
 odsvirati jako brzo
E-------------------------------------|
H-------------------------------------|
G-9-10-9-7-9-7-5-7-5-4-5-4------------|
D--------------------------7d--5-7-7v-|
A-------------------------------------|
E-------------------------------------|
          sjeckaj tonove
          |-----------|
          |           |
E-0-5-7-5-8-7-8-7-8-7---8-7-8-7----|
H-------------------------------8--|
G----------------------------------|
D----------------------------------|
A----------------------------------|
E----------------------------------|

E---------------------|
H---------------------|
G-4-4-5-7-4-----------|
D-----------5-7-7-5-7-|
A---------------------|
E---------------------|

e sad poslje klavijature preuzimaju svoje,
ako imate klavijaturistu dobrog onda neka
skine ovaj solo stvarno je IZUM...


---5---| --8---| --7--|
---6---| -10---| --8--|
---7---| --9---| --7--|
---0---|  Am       G
  Dm