Parni Valjak - Suncanom Stranom

Transkripcija: Ivan Kapov (ikapov@acmt.hr) - 30.6.2004.



INTRO & VERSE
     G     D        C     D        G     D       C     D
e--------3-2------------3-2------------3-2-----------3-2------
h------3-----3--------1-----3--------3-----3-------1----------
g----0-------------(0)-------------0------------(0)-----------
d-------------------------------------------------------------
a-------------------------------------------------------------
e-------------------------------------------------------------

Gitara svira ovaj gore INTRO, a kad Aki pocne pjevati
svira samo tise (u pozadini) i ponovo glasnije izmedu stihova.


VERSE 1
G            D          C        D     G          D   C   D
Gdje sam bio ja kad se sreca djelila, neznam
G            D          C          D     G          D   C   D
gdje sam bio ja kad si stvari spremila, neznam
         Am       D   G7         C7
znam da nisam bio tu, kada si me trebala
   Am             D           C           D
i sav taj teski teret mjesto mene ti si nosila

CHORUS:
          G         D       C       D
a ja sam suncanom stranom gradom hodao
        G         D         C       D
i tako malo, tako malo sam tebi pruzio
 G7                     G7sus2     C          Dadd11
znam da sam kriv, ali vjeruj mi uvijek cu te voljeti
          G   D         C     C D G
ja nisam kao ti, ja se bojim odrasti

VERSE 2
G            D          C        D     G          D   C   D
Gdje sam bio ja kad se pamet djelila, neznam
G               D          C        D     G          D   C   D
zasto sve sto dotaknem na krivo okrenem, neznam
          Am          D     G7         C7
znam da vrijeme pobjegne, covjek se nit ne snade
      Am             D       C               D
al lakse mi se vratiti kada znam da me cekas ti


CHORUS
          G         D       C       D
a ja sam suncanom stranom gradom hodao
        G         D         C       D
i tako malo, tako malo sam tebi pruzio
 G7                     G7sus2     C          Dadd11
znam da sam kriv, ali vjeruj mi uvijek cu te voljeti


d-5~---------------------4~--------3~-----------2~------------
(druga gitara svira ovaj "fill" uz gornje akorde)

          G   D         C     C D G
ja nisam kao ti, ja se bojim odrasti


SOLO:

Solo pocetak:
A   E   D   E

A   E   C   D

A   A7  Am7add11  A7

A   E   D   E    D-E solo kraj


CHORUS:   (svi akordi se dizu za jedan stupanj)

          A         E       D       E
a ja sam suncanom stranom gradom hodao
        A         E         D       E
i tako malo, tako malo sam tebi pruzio
 A7                     A7sus2     D          Eadd11
znam da sam kriv, ali vjeruj mi uvijek cu te voljeti

d-7~---------------------6~--------5~-----------4~-------------
(druga gitara svira ovaj "fill" uz gornje akorde)

          A   E         D     D E A
ja nisam kao ti, ja se bojim odrasti


OUTRO:
Svira se do fade out-a
     A     E        D     E        A     E       D     E

e--------5-4------------5-4------------5-4-----------5-4------
h------5-----5--------3-----5--------5-----5-------3----------
g----2-------------(2)-------------2------------(2)-----------
d-------------------------------------------------------------
a-------------------------------------------------------------
e-------------------------------------------------------------


-Prvi chorus (refren) se svira kroz "picking" tehniku dok na
preostalima se vec koristi vise distorzije.

-Pripazite na promjene tempa kad pjesma prelazi u solo dionicu

-Objasnjenje mogucih "zajeb" akorda koji su upotrebljeni u ovoj pjesmi:


   G7      C7     G7sus2   Dadd11   A7   Am7add11   A7sus2   Eadd11
e---3-------0------1---------2------5-------5---------0--------7--------|
h---3-------1------0---------3------5-------5---------0--------7--------|
g---4-------3------0---------0------6-------5---------0--------9--------|
d---3-------2------0---------0------5-------5---------0--------9--------|
a---5-------3------x---------0------7-------5---------0--------7--------|
e---3-------x------2---------x------5-------5---------x--------0--------|