Partibrejkers - 1000 Godina

Transkripcija: Milan Pavlovic (paparaco@EUnet.yu)
Home         : http://www.yutabs.f2s.com


  Uvod i strofa: Fis

  Refren:
  A5               A5               A5               A5
E|----------------|----------------|----------------|----------------|
H|----------------|----------------|-------1----3---|----------------|
G|------------0---|----------------|2---------------|----------------|
D|------2---------|----------------|----------------|----------------|
A|0---------------|----------------|----------------|----------------|
E|----------------|----------------|----------------|----------------|
  Fis              Fis              Fis              Fis
E|----------------|----------------|----------------|----------------|
H|----------------|----------------|----------------|----------------|
G|------9-------9-|------9-------9-|------9-------9-|----------------|
D|9b11----9b11----|9b11----9b11----|9b11----9b11----|----------------|
A|----------------|----------------|----------------|----------------|
E|----------------|----------------|----------------|----------------|

  Kraj refrena:
  Fis              Fis              Fis              Fis
E|------9---------|(9)-------------|----------------|----------------|
H|/11-------------|----------------|----------------|----------------|
G|----------------|----------------|----------------|----------------|
D|----------------|----------------|9--79---7---7---|----------------|
A|----------------|----------------|-----------9----|9---7-9---------|
E|----------------|----------------|----------------|----------------|

I znam kad bih ziveo 1000 godina
Ceo bi mi zivot stao u jedan dan
A jedan poziv menja sve
Ne zelim da zivim 1000 godina
Hocu sad i hocu sve

  Korisceni akordi:
Fis-244322
A5 -577XXX