Partibrejkers - Da Li Se Jos Volimo

Album        : Gramzivost i Pohlepa (2002)
Transkripcija: MartinZ.


F#m   C#m(xputa)

F#m           C#m
 Da li se jos volimo
F#m     C#m
 Ili se bojimo
F#m           C#m
 Da li se jos volimo
F#m     C#m
 Ili se bojimo
F#m       C#m
 Neuspeha svog 
F#m       C#m
 Neuspeha svog
F#m       C#m
 Neuspeha svog 
F#m       C#m
 Neuspeha svog

F#m         C#m
 Ljubav nije navika
F#m     C#m
 Srce da zavara
F#m         C#m
 Ljubav nije navika
F#m     C#m
 Srce da zavara
F#m           C#m
 Ne mislim na tebe
F#m           C#m
 Ne mislim na sebe
F#m        C#m
 Mislim na nas
F#m        C#m
 Mislim na nas

H
 Zelim da se probudim
A
 Zelim da te zagrlim
H
 Za ruku da te uhvatim
A                      F#m
 Sa tobom da nestanem


F#m          C#m
 Ljubav nije navika(x3)


***VERZIJA 2***
Transkripcija: Partibrejkers


Uvod:
E---------------------------------------------
H-10---------5--------------------------------
G-11---------6--------------------------------
D-11--11\----6--------------------------------  3X
A--9---9\---4--7/9---------------------------
E---------------------------------------------

E---------------------------------------------
H--10---------5-------5-----------------------
G--11---------6-----6-------------------------
D--11---11\---6---6---------------------------
A---9----9\---4-------------------------------
E---------------------------------------------

Strofa:
E---------------------------------------------
H-10--------5---------------------------------
G-11--------6---------------------------------
D-11--11\---6---------------------------------  4X
A--9---9\---4---------------------------------
E---------------------------------------------

Da li se jos volimo
ili se bojimo

E---------------------------------------------
H--10---------5-------5-----------------------
G--11---------6-----6-------------------------
D--11---------6---6---------------------------
A---9---------4-------------------------------
E---------------------------------------------

E---------------------------------------------
H--10-------5-------5-------------------------
G--11-------6-----6---(6)---------------------
D--11---\---6---6-----------------------------
A---9---\---4---------------------------------
E---------------------------------------------

E---------------------------------------------
H--10---------5-------5----------10-------5---
G--11---------6-----6--6---------11-------6---
D--11-----\---6---6------6-------11---\---6---
A---9-----\---4-------------------9---\---4---
E---------------------------------------------

neuspeha svog

Prvi solo
E---------------------------------------------
H---------------------------------------------
G--------11---11-9--------11--9-7--------9----
D--------11---------------11----------11...---
A-7/9 ---------------7/9------------7.....----
E---------------------------------------------

E----------------------------------------------------
H----------------------------------------------------
G------11--11-9-----9h11-9----------11--11-9-11--9-9-
D------11--------11--------11-------11---------------
A-7/9--------------------------7/9-------------------
E----------------------------------------------------

Druga strofa

Ljubav nije navika
srca da zavarava
Ne mislim na tebe
Ne mislim na sebe
Mislim na nas

Drugo solo
E----------------------------------------------------
H----------------------------------------------------
G--9--9-------9--9---------------------------9--9----
D--------11---------11----11b--9------------------11-
A---------------------------------11--9--------------
E----------------------------------------12----------

E-----------------------12---12---12-----------------
H-----------(0)--------------------------------------
G-9-9h11-9---9-------------9----9--------------------
D----------------11--11------------------------------
A----------------------------------------------------
E----------------------------------------12\---------

E-12---12---12---------------------------------------
H----------------------------------------------------
G---9-----9------11--11---9h11p9---------------------
D--------------------------------11------------------
A----------------------------------------------------
E----------------------------------------------------

E-12----12---12---------------------------------------
H-----------------------------------------------------
G-----9----9------9/11 11\9--9------------------------
D-----------------------------------------------------
A-----------------------------------------------------
E-----------------------------------------------------

E-12----12----12--------9--------9-------9-------9--------
H---------------------------------------------------------
G-----9-----9-----11b13----11b13---11b13---11b13----11b13-
D---------------------------------------------------------
A---------------------------------------------------------
E---------------------------------------------------------


Refren:
 H
 Zelim da se probudim
 A
 Zelim da te zagrlim
 H
 Za ruku da te uhvatim
 A                      F#m
 Sa tobom da nestanem


treci solo
E---------------------------------------------
H---------------------------------------------
G---------------------------------9h11-9------
D---------------------------------------------
A--------7-9/11-11---7-9/11-11----------------
E-x12\----------------------------------------

E---------------------------------------------
H---------------------------------------------
G------------9h11-9-9-------------------------
D---------------------------------------------
A-7 9/11-11------------7-9/11-11-----\--------
E---------------------------------------------

E-------------------------------------------12b14-
H-12----------------12-------------------0--------
G-11b13--11-9-11-9--11b13--11-9-11-9-9---0--------
D-------------------------------------------------
A-------------------------------------------------
E-------------------------------------------------

E--------------------------------------------------
H-12-------------------------12--------------------
G-11b13-11-9-11-9-9----------11b13-11-9-11-9-9-----
D--------------------9/11-9------------------------
A--------------------------------------------------
E--------------------------------------------------

Ljubav nije navika...