Partibrejkers - Hipnotisana Gomila

Transkripcija: pipss@mail.ru
Home         : http://2akordi.net/


Koristeni hvatovi (low to high)
----- --------
B5	X 2 4 4 X X
F#5	2 4 4 X X X
D5	X 5 7 7 X X
B5(2)	X 12 14 14 X X
B7(no5) X 2 1 2 X X
E       0 2 2 1 0 0                                        

INTRO: (RIFF1) x4 

VERSE: (RIFF3 + RIFF1) x4
   Mi ne idemo nikud i ne radimo nista
   mi smo jedna velika hipnotisana gomila
   al' ja znam kljuc ja poznajem tu bravu
   odkljucat' cu i stavit cu ti svasta u glavu

BRIDGE: (F# x2 + E x2)
   Ja mogu da te zabavim
   ja mogu da te sludim
   ja mogu da te uspavam 
   ja mogu da te budim

RIFF2: x1

CHORUS: (RIFF1 + bubanj)
   Da li verujes meni
   da li verujes meni
   ili mislis svojom glavom
   ili mislis svojom glavom

INSTR: x4

VERSE: (RIFF3 + RIFF1) x4
   Mi ne idemo nikud...

BRIDGE: (F# x2 + E x2)
   Ja mogu da te zabavim...

CHORUS: (RIFF1)
   Da li verujes meni x2
   ili mislis svojom glavom x6

OUTRO:(D5-B5)x4

_KRAJ_


RIFF1:(B5 F#5)
E|----------------------------------
B|----------------------------------
G|---4-4----------4-4-4-------------
D|---4-4----------4-4-4-------------
A|-0-2-2-0-----0--2-2-2-0-----0-(2)-
E|---------2-2------------2-2-------

RIFF2:

   B7(no5)
E|---
B|-0-
G|-2-
D|-1-
A|-2-
E|---

RIFF3:(prigusen zvuk akorda )
E|-----------
B|-----------
G|-x(4)------
D|-x(4)------
A|-x(2)------
E|-----------

INSTRUMENTAL:(lead gitara)X4        +  prelaz(4.put)
E|---------------------------------   --------------
B|-10b(12)-10b(12)-10b(12)---------   --------------
G|--9b(11)--9b(11)--9b(11)-9-7-9-7~   9b(11)r(9)p7--
D|---------------------------------   -------------9
A|---------------------------------   --------------
E|---------------------------------   --------------

OUTRO:(lead gitara)zadnja 2 takta
E|-----------------|---------------7-|-
B|-----------------|---------------7-|-
G|-6b(8)r(6)p4---4~|-6b(8)r(6)p4-----|-
D|-------------6---|-------------6---|-
A|-----------------|-----------------|-
E|-----------------|-----------------|-

OUTRO:(ritam gitara)
E|---------------------------
B|---------------------------
G|-7-x\4-7-x\4-7-x\4-7-x/16~-
D|-7-x\4-7-x\4-7-x\4-7-x/16~-
A|-5-x\2-5-x\2-5-x\2-5-x/14~-
E|---------------------------