Partibrejkers - Hocu Da Znam

Transkripcija: pipss@mail.ru
Home         : http://2akordi.net/


UVOD:1X (A5 G5 F5 A5)
RIFF1:2x

VERSE: (A5)
Hocu da znam kuda vodi ovaj put
mene
i zivot moj + (RIFF1)

Ciji je pocetak ciji je kraj
koji to covek vecnu tajnu zna + (RIFF1)

VERSE2:
Tamo gde je srce, tamo sija sunce
tamo gde je strah, tamo zivi mrak

CHORUS:(A5 G5 F5 F5) x2
Biti isti, biti poseban
biti slobodan
biti samo svoj

Isti, poseban
slobodan
biti samo tvoj

BEND: x2 takta 

VERSE: (A5)
Hocu da znam kuda vodi ovaj put
u meni
i zivot moj + (RIFF1)

ciji je pocetak ciji je kraj
koji to covek vecnu tajnu zna + (RIFF1)

VERSE2:
Tamo gde je srce,tamo sija sunce
tamo gde je strah,tamo zivi mrak

REF: (A5 G5 F5 F5) x4
Biti isti,biti poseban
biti slobodan
biti samo svoj

Isti, poseban
slobodan
biti samo svoj

Biti isti,biti poseban
biti slobodan
biti samo svoj

Isti,poseban
slobodan
biti samo tvoj

SOLA:(B5 A5 G5 F#5)16x

BRIDGE:
Marijo majko bozija
da li vidis sta rade sa tvojom decom

Marijo majko bozija
da li vidis sta rade sa tvojom decom

REF: (A5 G5 F5 F5) 
Biti isti,biti poseban
biti slobodan
biti samo svoj

REF+OUTSOLA: (A5 G5 F5 F5) x3
Isti, poseban
slobodan
biti samo svoj

Biti isti,biti poseban
biti slobodan
biti samo tvoj

Isti, poseban
slobodan
biti samo tvoj

_KRAJ_

 UVOD:(lead)
  A5        
E|-------------------17\--|-----------------------------|
B|------------------------|------------------13---15----|
G|--12h14~----------------|-----------12/14-------------|
D|------------------------|-----------------------------|
A|------------------------|-----------------------------|
E|------------------------|-----------------------------|
 G5                                                         
---------------------------------|----------------17----|
---16--13-15~-------13-----------|----------------------|
-----------------------14-12-----|----------------------|
-----------------------------14--|--12~-----------------|
---------------------------------|----------------------|
---------------------------------|----------------------|
 F5                                                  
--17\--------------------|-----------------------|
-------------------------|-----------------------|
-------------------------|--------------------x--|
----------10~------7p5---|--------------------x--|
-----------------------7-|--5\-----3~------------|
-------------------------|---------------5\------|
 A5                                                      
--------------------------|--------------------------|
--------------------------|----------8--8/10~--------|
-------5--7--7br-5-7p5----|--5--7/9------------------|
----7~-----------------7--|--------------------------|
--------------------------|--------------------------|
--------------------------|--------------------------|

RIFF1
E|------------------------|-------------------------|
B|------------------------|-------------------------|
G|--2---------------------|-------------------------|
D|--2---------------------|-------------------------|
A|--0----3--0--3----0--5b-|----6--3--0--3--3--0--5b-|
E|------------------------|-------------------------|

-------------------------|------------------------|
-------------------------|------------------------|
-------------------------|---------5--------------|
-------------------------|------5-----7~----------|
----6--3--0--3--3--0--3--|--5/7-------------------|
-------------------------|------------------------|


VERSE2: gitara
E|------------------------|
B|------------------------|
G|------------------------|
D|---------------------2--|
A|---------------------0--|
E|------------------------|

-------------------------|-------------------------|
-------------------------|-------------------------|
-------------------------|-------------------------|
----2--4--2--2--2--2--2--|----2--2--2--2--2--2--2--|
----0--0--0--5--0--3--0--|----0--3--0--5--0--3--0--|
-------------------------|-------------------------|

-----------------------|---------------------|
--7b---7r-7---------7--|--7----7--5----------|
--7b---7r-7---------7--|--7----7--5----------|
-----------------------|---------------------|
-----------------------|---------------------|
-----------------------|---------------------|


SOLO:
     B5                                            
E|-------------------|------7--------------------|
B|-------------------|--------10-7---------------|
G|--9b---------------|--------------9br-7-9p7----|
D|-------------------|------------------------9--|
A|-------------------|---------------------------|
E|-------------------|---------------------------|
  A5                                               
------------------------|-------------------------|
------------------------|-------------------------|
--7--9b---7~------------|-------------------------|
-----------------9p7----|--7----------------------|
---------------------9--|-------9----7------------|
------------------------|-----------------10--7-5-|
  G5                                                    
----------------------------|--------------------------|
----------------------------|--------------------------|
----------------------------|--------------7--9--7-----|
----------------------------|--------7--------------9--|
--7r---7p5-----7r---7p5-----|--7h-9-----9--------------|
-----------7p5----------7p5-|--------------------------|
  F#5                                          
------------------------|---------------------|
------------------------|---------------------|
--9r---7--9r---7--9b-9b-|------------9--7-----|
------------------------|------------------9--|
------------------------|---------------------|
------------------------|---------------------|

--------------------|--------------------|
--7b-----------7r---|--7------------7----|
--7b-----------7r---|--7------------7----|
--------------------|--------------------|
--------------------|--------------------|
--------------------|--------------------|

--------------------|--------------------------|
--5~-------5~-------|--5~---5~-5-5-5~-5~-5--5~-|
--5~-------5~-------|--5~---5~-5-5-5~-5~-5--5~-|
--------------------|--------------------------|
--------------------|--------------------------|
--------------------|--------------------------|

OUT SOLO:

***VERZIJA 2***
Transkripcija: Milan Pavlovic (paparaco@EUnet.yu)
Home         : http://www.yutabs.f2s.com


  Uvod:
  A                A                A                A
E|----------------|------------17\-|----------------|--------8---10--|
H|8h10------------|----------------|----------------|---/10----------|
G|----------------|----------------|----------------|----------------|
D|----------------|----------------|----------------|----------------|
A|----------------|----------------|----------------|----------------|
E|----------------|----------------|----------------|----------------|

  G                G       /---3---/G                G
E|10b11-8---10----|--------8-------|----------------|--------17------|
H|----------------|-----------10--8|----------------|----------------|
G|----------------|----------------|9\7-------------|----------------|
D|----------------|----------------|----------------|----------------|
A|----------------|----------------|----------------|----------------|
E|----------------|----------------|----------------|----------------|
  F                F       /---3---/F                F
E|17\-------------|----------------|----------------|----------------|
H|----------------|----------------|----------------|----------------|
G|----------------|----------------|----------------|----------------|
D|------------10--|----------------|----------------|----------------|
A|----------------|--------12-10---|----------------|----------------|
E|----------------|--------------12|10\8--------5\--|----------------|

  E                E       /---3---/E                E
E|----------------|----------------|----------------|----------------|
H|----------------|----------------|--------10--8-/-|10--------------|
G|--------5---7---|7b8-7-5-7--5----|5---7/9---------|----------------|
D|----7-----------|--------------7-|----------------|----------------|
A|----------------|----------------|----------------|----------------|
E|----------------|----------------|----------------|----------------|