Partibrejkers - Javi Se

Transkripcija: Milan Pavlovic (paparaco@EUnet.yu)
Home         : http://www.yutabs.f2s.com

  Cela pesma je u D5

  Tema:
E|----------------|----------------|----------------|----------------|
H|----3-----------|----3-----------|----3-----------|----------------|
G|----2-----------|----2-----------|----2-----------|----------------|
D|4-------------2-|4-4-----------2-|4-------------2-|4---4-44--4-44--|
A|2-----------6-0-|2-2---------6-0-|2-----------6-0-|2---2-22--2-22--|
E|------------4---|------------4---|------------4---|----------------|

  Varijacija:
E|----------------|----------------|----------------|----------------|
H|----3-----------|3---------------|----3-----------|3---------------|
G|----2-----------|2-----4---------|----2-----------|2-----4---------|
D|4-------------2-|------4-------2-|4-------------2-|------4-------2-|
A|2-----------6-0-|------------6-0-|2-----------6-0-|------------6-0-|
E|------------4---|------------4---|------------4---|------------4---|
         dolazi sa sun - cem, cekam zoru   dolazi sa sun - cem

  Solo 1:
E|----------------|----------------|----------------|----------75----|
H|----------------|----------------|----------------|------------75--|
G|7h9-------------|(9)---------97--|9b11r9b11-------|(11)----------76|
D|----------------|--------------9-|----------------|----------------|
A|----------------|----------------|----------------|----------------|
E|----------------|----------------|----------------|----------------|

E|----------------|----------------|----------------|----------------|
H|----------------|----------------|----------------|----------------|
G|7-----6------4h6|4-----2---------|----------------|----------------|
D|----------------|-------------4p2|4---------------|(4)-------------|
A|----------------|----------------|----------------|----------------|
E|----------------|----------------|----------------|----------------|

  Solo 2:
E|7h9-------------|--9h10-9-7------|-5--------------|----------------|
H|----------------|----------10-7p5|7-7-------------|--5---3-2---3-2-|
G|----------------|----------------|----------------|----------------|
D|----------------|----------------|----------------|----------------|
A|----------------|----------------|----------------|----------------|
E|----------------|----------------|----------------|----------------|

E|----------------|----------------|----------------|----------------|
H|----------------|----------------|----------------|----------------|
G|2---------------|--------------7-|--------------7-|----------------|
D|---4--2-0-------|----------7----7|7h9------------7|7h9-------------|
A|-----------4--54|5/7---9---------|----------------|----------------|
E|----------------|----------------|----------------|----------------|

  Solo 3:
predtakt
E|----|----------------|----------------|----------------|----------------|
H|----|----------------|----------------|----------------|----------------|
G|----|----------------|----------------|----------------|----------------|
D|----|77--7--7--------|77--7--7h9------|77--7--7--7--7--|7h9-------------|
A|-7h9|---X--X------7h9|---X--X------7h9|---X--X--X--X---|----------------|
E|----|----------------|----------------|----------------|----------------|
                                        /-------ovde ima varijacija-------/

Bolestan sam bole me noge od piva
Nestajem u noci razbijen na hiljade zivota
Cekam zoru dolazi sa suncem
Cekam zoru dolazi sa suncem

Bleda lica lica bez prica
Otvaraju usta reci ne izlaze
Cekam zoru dolazi sa suncem
Cekam zoru dolazi sa suncem

Javi se skini me sa vesala
Javi se upali svetla
U ovome mraku

Koga da nadjem koga da se setim
Gde su moji ljudi gde je moj ceo svet
Cekam zoru dolazi sa suncem
Cekam zoru dolazi sa suncem

  Korisceni akordi:
D5-XX023X

***VERZIJA 2***
Transkripcija: Stojan Babic

Uvod i glavna tema:
e|--------------------------------------------------------------------
B|------3--------------3---------------3------------------------------
G|--4---2--------------2---------------2-----------4--4--4-4-4--4-4---
D|--4-x-0---------4-4--0------------4--0-----------4--4--4-4-4--4-4---
A|--2-x-----------2-2---------------2--------------2--2--2-2-2--2-2---
E|---------0-4-5-------------0-4-5----------0-4-5---------------------

Bolestan sam, bole me noge od piva
Nestajem u noci, razbijen na hiljade zivota
Cekam zoru, dolazi sa suncem
Cekam zoru, dolazi sa suncem

e|--------------------7---------------------------------------
B|----------------------10-7----------------------------------
G|-7h9~~--9-7---9brb---------9-7---7--6--4h6p4--2-------------
D|------------9------------------9-----------------4-2-4------
A|------------------------------------------------------------
E|------------------------------------------------------------

Bleda lica lica bez prica
Otvaraju usta reci ne izlaze
Cekam zoru, dolazi sa suncem
Cekam zoru, dolazi sa suncem
Javi se skini me sa vesala
Javi se upali svetla u ovome mraku

e|------------------------------------------------------------
B|-12h14~~--14b15-14-12-------------10------------------------
G|----------------------14--11\9-11----11---------------------
D|------------------------------------------------------------
A|------------------------------------------------------------
E|------------------------------------------------------------

e|------------------------------------------------------------
B|------------------------------------------------------------
G|-9h11p9-7-6-7-6-------------------------7-------7-----------
D|----------------7-4-2-0---------------7---7-9-----7-9-------
A|------------------------4-5p4h5/7--9------------------------
E|------------------------------------------------------------

Koga da nadjem koga da se setim
Gde su moji ljudi gde je moj ceo svet
Cekam zoru, dolazi sa suncem
Cekam zoru, dolazi sa suncem
Javi se skini me sa vesala
Javi se upali svetla u ovome mraku

 (sa tremolom)
e|------------------------------------------------------------
B|---------------------------------2--0-2-3-5---5/7--5h7------
G|-7-9p7--6--7p6--4h6p4--2h4p2--4-----------------------------
D|------------------------------------------------------------
A|------------------------------------------------------------
E|------------------------------------------------------------

e|-5h7-5h7-5h7--5h7-5h7-5h7-------5h7-5h7--10h12-10h12-10h12--
B|---------------------------5h7------------------------------
G|------------------------------------------------------------
D|------------------------------------------------------------
A|------------------------------------------------------------
E|------------------------------------------------------------

              rafalno okidati         slide out
e|--12h14--14>>>>>>>>>>>>>>>>>>>14/21-21\---------------------
B|------------------------------------------------------------
G|------------------------------------------------------------
D|------------------------------------------------------------
A|------------------------------------------------------------
E|------------------------------------------------------------

  Palm muted
e|----------------------------------------------------------
B|----------------------------------------------------------
G|----------------------------------------------------------
D|------7-7---7---7--x-x-x-x--------7-7---7---7---7h9-------
A|--7-9-----9---9------------9--7-9-----9---9---9-----------
E|----------------------------------------------------------...

ne mogu vise pisat jest da je skroz jeb*cki ovaj dio sola al uglavnom
se sve ponavlja uz male promene