Partibrejkers - Kreni Prema Meni

Transkripcija: Milan Pavlovic (paparaco@EUnet.yu)
Home         : http://www.yutabs.f2s.com


  Uvod :
E|--------------------------------|--------------------------------|
H|--------------------------------|10b12-12-----10b12-12----10-7---|
G|--------------------9b11-11-11--|---------11-----------11------9-|
D|--------------------------------|--------------------------------|
A|--------------------------------|--------------------------------|
E|--------------------------------|--------------------------------|

E|--------------------------------|--------------------------------|
H|--------9-------7---------------|--------------------------------|
G|7-------9-------7-h-8---8-------|8---8---8---7-h-8---8---8-------|
D|----9-------------------9-------|9---9---9---9-------9---9-------|
A|--------------------------------|--------------------------------|
E|--------------------------------|--------------------------------|

E|--------------------------------|--------------------------------|
H|--------------------------------|--------------------------------|
G|8---8---8---7-h-8---8---8-------|8---8---8---7-h-8---8---8-------|
D|9---9---9---9-------9---9-------|9---9---9---9-------9---9-------|
A|--------------------------------|--------------------------------|
E|--------------------------------|--------------------------------|

E|--------------------------------|
H|--------------------------------|
G|8---8---8---7-h-8---8---8-------|
D|9---9---9---9-------9---9-------|
A|--------------------------------|
E|--------------------------------|

  Strofa:
H5
Ti nisi Julija ja nisam Romeo
Nocas sam nesto gadno pojeo
Lepo pricas lepo hodas
Slatka mala nemoj lako da se prodas

  Refren:
     H5
Zato kreni, kreni prema meni
     E5
Zato kreni, kreni prema meni
Fis5
Kreni, kreni prema meni

Mozes da lajes mozes da rezis
Mozes da ostanes a mozes i da bezis
Bez duse si niko bez duse si nista
Kupujes prodajes oduzimas i dodajes

  Korisceni akordi:
H5  -79XXXX
E5  -X79XXX
Fis5-X 9 11 X X X


***VERZIJA 2***
Transkripcija:Pipss pipss@mail.ru
Home         :http://2akordi.net/

INTRO:(B)

B5
Ti nisi Julija ja nisam Romeo
                          slide (A#5/B5) x 
nocas sam nesto gadno pojeo  

Lepo pricas lepo hodas
slatka mala nemoj lako da se prodas 


     B5                    (A#5/B5)
Zato kreni,kreni prema meni
     E5                    (A#5/B5)
Zato kreni,kreni prema meni
F#5
kreni
E5              (A#5/B5)
kreni prema meni


Mozes da lajes mozes da rezis
mozes da ostanes a mozes i da bezis

Bez duse si niko bez duse si nista
kupujes prodajes oduzimas i dodajes


Zato kreni...

SOLA:

CHORUS + INSTR: x2

OUTRO RIFF:

_KRAJ_