Partibrejkers - Ljudi Nisu Isti

Transkripcija: Nikola Kolarovic (nikolak@bigfoot.com)


 LONG LIVE R'N'R!

 / - slide up
 \ - slide down
 h - hammer on
 p - pull off
 b - bend up (to note)
 ~ - vibrato
 v - tremolo


Pocetak:
E-------------------17~- <- druga gitara  
H--------------17b(19)~- <-''
G--9b(11)~~~~~vvvvvvvvv- <- tremolo i mikrofonija
D-----------------------
A-----------------------
E-----------------------


Intro:
  H5             A5             E           F#5 G5
E---------------------------------0--0---------------------------
H---------------------------------0--0---------------------------
G-4-------4---4--2-2vv-----22-----1--1---------------------------
D-4-------4---4--2---------22-----2--2---2---4--5-----5-5-5------
A-2-----0h2-0h2--0---------00-4----------2---4--5-----5-5-5------
E-----------------------------2-0--------0---2--3-----3-3-3--\\\-

Intro solo (pratnja gore):                          v pet puta
E------------------------------------------------------------------
H-------------------------------7-10-10b(12)-0---15b(17)---17b(19)~
G-9b(11)~~---9-7----------6-7-9--------------0---------------------
D----------------9~----9-------------------------------------------
A------------------------------------------------------------------
E------------------------------------------------------------------
  H5             A5           E              G             D




Strofa: D
E-----------------------------------------------------------
H-X-3-3--3-3-----X-3-3--3-3-----X-3-3--3-3-----X-3-3--5-3---
G-X-2-2--2-2-----X-2-2--2-2-----X-2-2--2-2-----X-2-2--2-2---
D-----0--0-0---------0--0-0---------0--0-0---------0--0-0---
A-----------------------------------------------------------
E-----------------------------------------------------------
    Svaki klinac ima svoju pricu, svaka keva ima svoga cicu
    Okreni se,     saznaces,    kad umres,     ziveces


Refren:
E--------------------------|---------------------------------
H--------------------------|---------------------------------
G-4---------------4---4----|-7---7-77777777---9---9-99999999-
D-4---------------4---4----|-7---7-77777777---9---9-99999999-
A-2---------------2-0-2-0--|-5---5-55555555---7---7-77777777-
E-------------------------2|---------------------------------
  Ljudi nisu isti X3


E--------------------------
H--------------------------
G-44-----4-----4---4-------
D-44-----4-----4---4-------
A-22--0--2--0--2-0-2-0-----
E----------------------2p0-
  Svi ljudiii!

 D
 On je ziv muci se
 On je mrtav kurci se
 Prolaze dani, prolaze noci
 Odluci se kada ces moci

 
 Ljudi nisu isti
 Ljudi nisu isti
 Ljudi nisu isti
 Svi ljudiii

 

 Drugi solo na intro temu:
E------------------------------------------------------------------
H-----------------10--10b(12)-10-----------------------------------
G-9b(11)r9b(11)~~----------------9~--7-----11--9--7----------------
D--------------------------------------9-------------9--7----------
A---------------------------------------------------------7-5h7p5h7
E------------------------------------------------------------------
 
 
 Ljudi nisu isti
 Ljudi nisu isti
 Ljudi nisu isti

 Ljudi nisu isti
 Ljudi nisu isti
 Ljudi nisu isti
 Svi ljudiii
 Svi ljudiii
 Svi ljudiii



--------------------------------------------------------------
 Sve ispravke i dopune su dobrodosle! (nikolak@bigfoot.com)

Posetite moj sajt: 
http://makecashe.tripod.com/Zaradite_novac_na_internetu.htm