Partibrejkers - Ludo I Brzo

Transkripcija: Babic Stojan

Uvod: Dve gitare sviraju

Ritam gitara: Bugi fazon              |Glavna tema
e|------------------------------------|----------------------------------------
B|------------------------------------|----------------------------------------
G|------------------------------------|----------------------------------------
D|-----------------------9---9---9~~--|----------------------9-9-9-9-9---------
A|--9--11--11---11p9--x----9---9-9----|--9--11--11--11p9--x--------------------
E|--7--7---7----7-----x---------------|--7--7---7---7-----x--------------------

Solo gitara:
e|--10---------10-----------------10---------x---------------------------------
B|--10---12----10---12------------10---12----10--------------------------------
G|-------11---------11---9p7-----------11--------9p7---7----7-7-7--7-----------
D|----------------------------9----------------------9---9------------9-7-9----
A|-----------------------------------------------------------------------------
E|-----------------------------------------------------------------------------
           1/4
e|-----------------------------------------------------------------------------
B|------9--9b---10------10-----------------------------------------------------
G|--11--------------11------9.p7--------9b--7----7-----------------------------
D|-------------------------------9--7------------9p7--9p7---11--11--11---------
A|-----------------------------------------------------------------------------
E|-----------------------------------------------------------------------------

Bridge:
|-------------------|
|----9-------9------|
|----9-------9------|x3
|----9-------9------|
|-7--7----7--7------|
|-0-------0---------|

solo:
e|---------------------|------------------------------|------------------------
B|--17b--17pbr--15-----|-----15h17b--17b--15------15b-|----15-17b--17b--15-----
G|------------------16-|-16-------------------16------|-16------------------16-
D|---------------------|------------------------------|------------------------
A|---------------------|------------------------------|------------------------
E|---------------------|------------------------------|------------------------

e|---------------18-----------------|
B|------15--17b------17pbr--15------|
G|--16--------------------------16--|
D|----------------------------------|
A|----------------------------------|
E|----------------------------------|

kod dela "srce i ljubav"
|-----------------------
|-----------------------
|-----------------------
|--------7~--9p7---7-9--
|--9-9-9---------9------
|-----------------------

Posle ide neki skroz sranje solo ne vredi to skidat.

pbr= pre bend relase
9.p7= ne odsvirati odma pull off vec zadrzati malo

Nasa ljubav nikad nece prestati
Prer ce svet u paklu nestati
Ludo i brzo, ludo i brzo

Pre tebe nista sa tobom sve
Srce i ljubav ono pokrece svet
ludo i brzo, ludo i brzo

Sto svie trazis vise ce boleti
za ljubav treba mnogo podneti
Ludo i brzo, ludo i brzo