Partibrejkers - Meseceva Kci

Transkripcija: Ivan Vasic (ivasic@cent.co.yu)
Home         : http://www.tablature.co.yu


Intro i Verse
                                                        10x       
E||------------------------------------0--0--0--0--0---||
B||---------3-----------3--------3-----3--3--3--3--3---||
G||*-----2-----------0--------0-----0--0--0--0--0--0--*||
D||*--0--------------------------------2--2--2--2--2--*||
A||------------0--2--------1-----------3--3--3--3--3---||
E||----------------------------------------------------||
                                                                    
Jos uvek zivi tamo gore
gde su joj zvezde prve komsije
i vise nikog nema pored nje
svoj zivot provodi sama

Meseceva kci, zacarana
spava pod senkom uspomena
mnoge godine vec prosle su 
jos samo prica seca na nju

D          C       H       B
S ortacima sedim i ispijam piva
i kao da me nista nije briga
a dao bi sve sto imam, da znam
A
da li sam joj potreban

Nisam bas siguran za sledeci deo solaze, a ako neko ima celu
solazu neka mi posalje...

Solaza (prvi deo):
E-------------------------------------------------------------------
B--------6-----8-----6-----x--x--x-----8--8--8-----x--x--x--8--8----
G---5/7-----7-----7-------------------------------------------------
D-------------------------------------------------------------------
A-------------------------------------------------------------------
E-------------------------------------------------------------------
                                                                    
3x                                                          
E-------||
B---8---||
G------*||
D------*||
A-------||
E-------||
    

***VERZIJA 2***
Transkripcija: Matej Ostir  (matej.ostir@siol.net)
Home         : http://2akordi.net


akordi           E A D G B e

D (intro)         0 0 0 2 3 2
D                 5 5 7 7 7 5
G (intro)         3 2 0 0 3 3 
G                 3 5 5 4 3 3
A#                1 1 3 3 3 1 
C (intro)         X 3 2 0 1 0 
C                 3 3 5 5 5 3
A                 5 7 7 6 5 5

intro

 D            G        A#          C
-----------------------------------0---0---0---0---0
-------3----------3---------3------1---1---1---1---1
----2-----2-------------------3----0---0---0---0---0
----------------0---------1--------2---2---2---2---2
-0------------2---------2----------3---3---3---3---3
----------------------------------------------------

D          G         A#     C
Jos uvijek zivi tamo gore
gde su joj zvezde prve komsije
i vise nikog nema pored nje
svoj zivot provodi sama

Meseceva kci, zacarana
spava pod senkom uspomena
mnoge godine vec prosle su 
jos samo prica seca na nju

D         G        C       A#
S ortacima sedim i ispijam pivo
i kao da me nista vise nije briga
a dao bi sve sto imam, da znam
A
dali sam joj potreban

***VERZIJA 3***
Transkripcija: Milan Pavlovic (paparaco@EUnet.yu)
Home         : http://www.yutabs.f2s.com


  Uvod, strofa i kraj:
E|----------------|----------------|----------------|----0-0-0-0-0---|
H|--------3-------|--------3-------|--------3-------|----1-1-1-1-1---|
G|----0-------0---|----0-----------|----0-------0---|----0-0-0-0-0---|
D|0---------------|----------------|----------------|----2-2-2-2-2---|
A|----------------|2-----------1---|(1)-------------|----3-3-3-3-3---|
E|----------------|----------------|----------------|----------------|
                                   /----cetvrti put ovog dela nema---/

Refren:
E|----------------|----------------|----------------|----------------|
H|----------------|----------------|----------------|----------------|
G|----------------|----------------|----------------|----------------|
D|7-------7-----X-|X-5-----5-------|5-------5-----X-|X-3-----3-------|
A|5-------5-----X-|X-3-----3-------|2-------2-----X-|X-1-----1-------|
E|----------------|----------------|----------------|----------------|

Kraj refrena ("da li sam joj potreban"): A

  Prelaz:
E|----3-------3-1-|(1)-------------|
H|----3-------3-3-|(3)-------------|
G|----------0-----|----------------|
D|----------0-----|----------------|
A|----------------|----------------|
E|3---------------|----------------|

  Korisceni akordi:
A-X02220

Jos uvek zivi tamo gore
Gde su joj zvezde prve komsije
I vise nikog nema pored nje
Svoj zivot provodi sama

Meseceva kci, zacarana
Spava pod senkom uspomena
Mnoge godine vec prosle su
Jos samo prica seca na nju

S ortacima sedim i ispijam piva
I kao da me nista nije briga
A dao bih sve sto imam da znam
Da li sam joj potreban
Da li sam joj potreban
Da li sam joj potreban
Meseceva kci