Partibrejkers - Nocas U Gradu

Transkripcija: Nikola Kolarovic (johnny47ns@yahoo.com)
Album        : Gramzivost i pohlepa (2002)


Nemam ni celu pesmu a ni gitaru ovde :)
Ali ni pesma nije teska...

Treba mi tekst!

RIFF:
         Hm
E--10----7------X--7--7-------------------X--
H--10----7------X--7--7--------9---9-9-7--X--
G--------7------X--7--7------9-----9-9-7--X--
D--------------------------------------------
A--------------------------------------------
E--------------------------------------------

 Nocas u gradu neko postaje sed
 Nocas u gradu zavodi se red
 Diktatura, proleteri jata
 Diktatura, proleteri jata



E-----------X-X-X--------------------------------------
H-----------X-X-X---------------------7----------7-----
G-9b(11)----X-X-X------9b(11)r9-7-----7----------7-----
D---------------------------------9------9~~-------9\\-
A-----------------9\\----------------------------------
E------------------------------------------------------
                       Zavodi   se   red

E-----------X-X-X-7------------------------------------
H-----------X-X-X-7-------------------7----------7-----
G-9b(11)----X-X-X-7----9b(11)r9-7-----7----------7-----
D---------------------------------9------9~~-------9\\-
A------------------------------------------------------
E------------------------------------------------------
                       Zavodi   se   red

Upozorenja sa svih strana 
Na ponasanje ovih dana
Zavodi se red, zavodi se red
Zavodi se red, zavodi se red


REFREN: (ovo totalno napamet)
   H5      G             D             A
E---------------------------2-------------------------
H------------------------3--3----------2--------------
G--4-------------4h5p4---2--2----------2--------------
D--4-------5-------------0-------------2--------------
A--2-------5---------------------------0------0-2-2-0-
E----------3--------------------------------2---------
    Gde si sad            da gledamo u mrak


dalje? :)

--------------------------------------------------------------
 Sve ispravke i dopune su dobrodosle! (johnny47ns@yahoo.com)