Partibrejkers - Pogledaj

Album        : Gramzivost i Pohlepa (2002.)
Transkripcija: ivan3  a38@net.hr


Glavni riff:
  E5          D5                Dsus2
|------------------|------------0--0--|
|-------------3--3-|------------3--3--|
|.------------2--2-|------------2--2--|
|.2--2--------0--0-|------------0--0--|
|-2--2-------------|------------------|
|-0--0--2--4-------|------------------|

  E5          D5               Dsus2
|------------------|---------------0--|
|-------------3--3-|--------------3---|
|-------------2--2-|-------------2---.|
|-2--2--------0--0-|------------0----.|
|-2--2-------------|------------------|
|-0--0--2--4-------|-neka kombinacija-|


/glavni riff/
Pogledaj sta ostavljas
iza sebe
Pogledaj ko dolazi
posle tebe


Refren:(2x)
C5
Potrosili smo        H|--5b6--5---------|
C5
sve sto smo stigli   H|--5b6--5b6r-5----|


/glavni riff/
I sad cutimo
I sad ne znamo sta
I sad cutimo
I sad ne znamo kud

Refren:(2x)     A|-3p2p0-3p2p0---|
                E|-------------3-|

E5

E5
S kim ces podeliti vreme
S kim ces iznenaditi sebe

Solo E pentatonics

Refren (2x)(bez rijeci) A|-3p2p0-3p2p0---|
                        E|-------------3-|   E5