Partibrejkers - Prsten

Transkripcija: Milan Pavlovic (paparaco@EUnet.yu)
Home         : http://www.yutabs.f2s.com


  Tema:
  H                H
E|----------------|----------------|
H|----------------|----------------|
G|----------------|----------------|
D|4-------4---4---|----------------|
A|2-------2---2---|--------0-------|
E|----------------|------------2---|

  Strofa:

H                                  {tema}
Mogla si da budes moja al' nisi smela
Sada si sama i nicija
E
I svi imaju pravo na tebe
I svi imaju pravo na tebe
H                                  {tema}
Mogla si da budes moja al' nisi smela

  Refren:
  Fis              Fis              Fis
E|2-------2---2---|--------2---2---|--------2-------|----------------|
H|2-------2---2---|--------2---2---|--------2-------|----------------|
G|3-------3---3---|--------3---3---|--------3-------|----------------|
D|4-------4---4---|--------4---4---|--------4-------|9---7-----------|
A|4-------4---4---|--------4---4---|--------4-------|7---5-----------|
E|2-------2---2---|--------2---2---|--------2-------|----------------|
  Kupio    sam      prsten        kupio   sam     pusku

  H                H                H                H
E|2-------2---2---|--------2---2---|--------2---2---|--------2-------|
H|4-------4---4---|--------4---4---|--------4---4---|--------4-------|
G|4-------4---4---|--------4---4---|--------4---4---|--------4-------|
D|4-------4---4---|--------4---4---|--------4---4---|--------4-------|
A|2-------2---2---|--------2---2---|--------2---2---|--------2-------|
E|----------------|----------------|----------------|----------------|
  Jedno    od     ta     dva     bacicu    u      reku

A sada vidim vodis drugog
Moja sreca ne lici na tebe
Mogla si da budes moja al' nisi smela
Mogla si da budes moja al' nisi smela

  {Ponovi refren}

  Solo:
  H                H                H                H
E|--------10------|10--10----------|10--10----------|----------------|
H|--------12------|12--12------12--|12--12------12--|----5b6r5-------|
G|----------------|------------11--|------------11--|----4b5r4-4-----|
D|----------------|----------------|----------------|----------------|
A|----------------|----------------|----------------|----------------|
E|----------------|----------------|----------------|----------------|

  Korisceni akordi:
H  -X24442
E  -022100
Fis-244322


***VERZIJA 2***
Transkripcija: pipss@mail.ru

B
Mogla si da budes moja al nisi smela

Sada si sama i nicija
E
i svi imaju pravo na tebe

i svi imaju pravo na tebe
B
Mogla si da budes moja al nisi smela

F#                           (E)
Kupio sam prsten,kupio sam pusku
B
Jedno od ta dva bacit cu u reku
F#                           (E)
Kupio sam prsten,kupio sam pusku
B
Jedno od ta dva bacit cu u reku

A sada vidim vodis drugog
Tvoja sreca ne lici na tebe
Mogla si da budes moja al nisi smela
Mogla si da budes moja al nisi smela

Kupio sam prsten,kupio sam pusku
Jedno od ta dva bacit cu u reku
Kupio sam prsten,kupio sam pusku
Jedno od ta dva bacit cu u reku