Partibrejkers - Sit Gladan

Transkripcija: Nikola Kolarovic (nikolak@bigfoot.com)


 / - slide up
 \ - slide down
 b - bend (to)
 r - release bend
 X - dead note



 Riff:
E---------7--7--7-7---------------------------
H----7-9--7--7--7-7-9---9b(10)r9b(10)-9-7-----
G-6/8---------------9---9b(10)r9b(10)-9-7-----
D-----------------------------------------9-7-
A---------------------------------------------
E---------------------------------------------

Verse 1:
E--------------
H--------------
G-4--4--4------
D-4--4--4------
A-2--2--2--0-0-
E-----------2--


 Na nogama sam se rodio, mnoge sam puteve hodio
 Video sam pocetak i kraj, video sam bedu i sjaj

 < riff>

 Na mnoga pitanja ti ne mogu odgovoriti
 Al' ti neka vrata mogu otvoriti
 
 Bolje sit gladan nego sit glup
 Bolje sit gladan  nego sit glup
 Bolje sit gladan nego sit glup
 Bolje sit gladan  nego sit glup

 E deo: 
(ovo varira iz refrena u refren, mozete svirati samo E5)
E------------------------
H-9b(10)r9b(10)-9-7------
G-9b(10)r9b(10)-9-7------
D-------------------9--7-
A------------------------
E------------------------

< riff>
< solo>

Verse 2:            Verse 3:
E----------------    E-------------------
H----------------    H-------------------
G-44-XX-X--------    G--------44-X-------
D-44-XX-X--------    D--------44-X-------
A-22-XX-X--0-1-2-    A--0-1-2-22-X-------
E---------2------    E-2----------10\\\\-

 < Verse 2>
 Slabo se secam s kim sam bio
 Slabo se secam s kim sam pio
 < Verse 3>
 Zivot svoj
 < Verse 2>
 Na mnoga pitanja ti ne mogu odgovoriti
 Al' ti neka vrata mogu otvoriti
 < Verse 3>

 Bolje sit gladan nego sit glup
 Bolje sit gladan < E deo> nego sit glup
 Bolje sit gladan nego sit glup
 Bolje sit gladan < E deo> nego sit glup
 < riff>

 < SOLO>
 Bolje sit gladan nego sit glup
 Bolje sit gladan < E deo> nego sit glup
 Bolje sit gladan nego sit glup
 Bolje sit gladan < E deo> nego sit glup
 Bolje sit gladan nego sit glup
 Bolje sit gladan nego sit glup
 Nego sit gladan nego sit glup 
 Nego sit gladan, sit glup
 Sit gladan, sit glup
 Sit gladan, sit glup
 Sit gladan, sit glup
 Sit gladan, sit glup

--------------------------------------------------------------
 Sve ispravke i dopune su dobrodosle! (nikolak@bigfoot.com)