Partibrejkers - Ti Moras Biti Moja

Transkripcija: Milan Pavlovic (paparaco@EUnet.yu)
Home         : http://www.yutabs.f2s.com


  Uvod: A, E, A, E

  Strofa:
A          
Uvek kad cujem odjek tvojih stikli
E
Odmah se pretvorim u tvoju pticu
Neces da budem kao svi
Nosis mene kao psa
Pazi da te ne ujedem X4

  Refren:
  Fis              Fis              E                E
E|----------------|------2-2-------|0--0--0---------|0--0--0---------|
H|----------------|------2-2-------|0--0--0---------|0--0--0---------|
G|----------------|----------------|1--1--1---------|1--1--1---------|
D|---4--3--2--1-0-|---4------------|2--2--2---------|2--2--2---------|
A|----------------|----------------|2--2--2---------|2--2--2---------|
E|2---------------|2---------------|0--0--0---------|0--0--0---------|
Ti moras biti moja,ti moras biti moja sad

  {Ponovi uvod}

  Kraj:
    A G  A A AG      E
E|--5-3--5-5-53---|--0-0--0-0-00---|
H|--5-3--5-5-53---|--0-0--0-0-00---|
G|--6-4--6-6-64---|--1-1--1-1-11---|
D|--7-5--7-7-75---|--2-2--2-2-22---|
A|--7-5--7-7-75---|--2-2--2-2-22---|
E|--5-3--5-5-57---|--0-0--0-0-00---|

  Korisceni akordi:
A-577655
E-022100
G-355433


***VERZIJA 2***
Transkripcija: pipss@mail.ru


INTRO: A  E  A  E

A
Uvek kad cujem odjek tvojih stikli
E
Odmah se pretvorim u tvoju pticu
A
Neces da budem kao svi
E
Pratis mene kao psa.

A
Pazi da te ne ujedem
E
Pazi da te ne ujedem
Pazi da te ne ujedem
Pazi da te ne ujedem

F#
Ti moras biti moja
                   E
Ti moras biti moja


OUTRO: A   E
A
Ti moras biti moja
E
Ti moras biti moja