Partibrejkers - Zurim

Transkripcija: Nikola Kolarovic (johnny47ns@yahoo.com)



GLAVNI RIFF:
  A5
E-------------------------|---------------------
H-------------------------|---------------------
G-2--2----2p0-----------0-|-2--2----2p0---------
D-2--2--------2p0------0--|-2--2--------2p0-----
A-----------------3p0-----|-----------------3p0-
E-------------------------|---------------------

 ovde treba svirati A dur na petoj poziciji
 A
 Zurim ne znam gde
 Zurim da je nadjem
 Zurim ne znam gde
 Zurim da je nadjem

E----------------/-/-5--5-\-
H----------------/-/-5--5-\-
G-2--------------/-/-6--6-\-
D-2------------------------- X4
A-0--3p0--3p0---------------
E---------------------------
   Jos jednom


 Bio sam lud
 Odbio sam ljubav
 Mislio sam
 Da mogu sve sam


  PM......
E---------------------------
H---------------------------
G------------7---5----------
D-2-2--5-5---7---5----------
A-0-0--3-3------------------
E---------------------------
 I opet sna nemam ja X2


 Gde je ona
 Gde je ona
 Gde je ona       X2
A5
 Koju volim ja


Prelaz:
 A, Asus4



 Zurim
 Da je nadjem
 Dok ne iscuri

 Jos jednom X4

 Bez nje sna nemam ja X4

A, Asus4
 Samo da je nadjem
 Samo da je nadjem
 Samo da je nadjem
 Samo da je nadjem

Solo: Am

 Samo da je nadjem!

--------------------------------------------------------------
 Sve ispravke i dopune su dobrodosle! (johnny47ns@yahoo.com)