Piloti - Zaboravljeni

Transkripcija: pipss@mail.ru
Album        : Kao ptica na mom dlanu (1987)
Info         : Tema iz serije "Sivi Dom"


UVOD/SOLO/OUTRO pratnja:
|Bb    |Ebmaj7 F  |Gm    |D     |  x puta


Bb                 Gm
Mozda smo ja i ti, divlji i niciji,
          Ebmaj7       F
mozda nas tuga, zauvek vezala.
Bb                  Gm
Kazu mi da smo svi, rodjeni jednaki,
             Cm          F
jednaki pred Bogom i pod zvezdama.


Eb/Bb Bb      Gm
Cu____jem, marsiraju zastave,
Cm              F
zvone koraci, u ovoj noci.
Eb/Bb Bb  Gm
Ne____bo, nocas ratuje,
  Cm              [G] Dm       Gm
a ti me ne pitaj, nikada, o samoci.


Eb  Bb  Eb           Bb
Sanjam, sanjam da si tu,
       C   Gm      C           F
k'o da le__tim, na zlatnom cilimu.
Eb  Bb  Eb           Bb
Sanjam, Bog nas prokleo,
        C  Gm   C            Eb Bb
sve nam da_o, a srecu nam je uzeo.


Zaboravljen sam ja, zaboravljena ti,
negde u tisini, nase ulice.
Ponoc je kucnula, ti si se prekrstila,
obrisala sve, jednim potezom gumice.


Cujem, marsiraju zastave,
zvone koraci, u ovoj noci.
Nebo, nocas ratuje,
a ti me ne pitaj, nikada, o samoci.

Sanjam, sanjam da si tu,
k'o da le__tim, na zlatnom cilimu.
Sanjam, Bog nas prokleo,
                       F
sve nam dao, a srecu uzeo.

Sanjam, sanjam da si tu,
k'o da le__tim, na zlatnom cilimu.
Sanjam, Bog nas prokleo,
sve nam dao, a srecu nam je uzeo.


***VERZIJA 2***
Transkripcija: ???


uvod i glavni riff
-----------------------------------------------------------------------------------
15h16-18-18-16-15-16-----------------------------15-16-15--------------------------
---------------------17b19-19r17~~~~~------15h17----------17-15--17b19~~~~--19r17~~
-----------------------------------------------------------------------------------
-----------------------------------------------------------------------------------
-----------------------------------------------------------------------------------

------------------------------------------
------------------------------------------
--13b15~~~~~~~~~~-------------------------
------------------------------------------
------------------------------------------
------------------------------------------

Bb                Gm
mozda smo ja i ti divlji niciji
          Cm            F
mozda nas tuga zauvek vezala
Bb
kazu mi da smo svi 

------------------------------------------
-----6-6-----6/8~~~-----------------------
------------------------------------------
-6/8-----6/8------------------------------
------------------------------------------
------------------------------------------

Gm
rodjeni jednaki
              Cm          F
jednaki pred Bogom i pod zvezdama

------------------------------------------
------------------------------------------
-17b19~~--15~~~---------------------------
------------------------------------------
------------------------------------------
------------------------------------------

Eb Bb  C           Gm
cujem marsiraju zastave
C       Gm    Bb F 
zvone koraci u ovoj noci
Eb Bb C       Gm
nebo  nocas ratuje
  C         Gm     Am        Gm
a ti me ne pitaj nikada o samoci

Eb  Bb Eb           Bb
sanjam sanjam da si tu
       C  Gm    C          F  
k'o da letim na zlatnom cilimu
Eb  Bb Eb           Bb
sanjam Bog nas prokleo
        CmGm    C         Gm  Bb
sve nam dao a srecu nam je uzeo

zaboravljen sam ja zaboravljena ti
negde u tisini nase ulice

-------------------13~~~---
---------------------------
-17b19r17b19r17b19---------
---------------------------
---------------------------
---------------------------

ponoc je kucnula 
ti si se prekrstila
obrisala sve jednim potezom gumice

cujem marsiraju zastave
zvone koraci 

u ovoj noci

----------------------------
----------------------------
--3~~-2~~-----------3~~~~~--
----------5~~--3~~----------
----------------------------
----------------------------

nebo nocas ratuje
                      
a ti me ne pitaj nikada 
-------------------------------
--15-16-15---------------------
-----------15-14b15r14---------
-----------------------15-17---
-------------------------------
-------------------------------

o samoci

Eb  Bb Eb           Bb
sanjam sanjam da si tu
       C  Gm    C          F  
k'o da letim na zlatnom cilimu
Eb  Bb Eb           Bb
sanjam bog nas prokleo
        CmGm    C    F      
sve nam dao a srecu uzeo

Eb  Bb Eb           Bb
sanjam sanjam da si tu
       C Gm     C          F  
k'o da letim na zlatnom cilimu
Eb  Bb Eb           Bb
sanjam Bog nas prokleo
        CmGm    C          G  Bb
sve nam dao a srecu nam je uzeo
  A.F.
-< 18>-----------------------------
----------------------------------
----------------------------------
----------------------------------
----------------------------------
----------------------------------

main riff
-------13-13---------------------------------------------
-----------------------------------------18--------------
-14h15-------14h15----12-----17b19-17b19----17b19r17....-
---------------------------------------------------------
---------------------------------------------------------
---------------------------------------------------------