Plejboj - Grizi Metak

Transkripcija: Blake


UVOD:
e|-----------------------------------------------------|
H|-----------------------------------------------------|
G|---------------5bu(6)bd5-----------------------------|  X3
D|-7-5-7-5---757------------7-5-7-5----7-5-------------|
A|-----------------------------------------7-6-5-------|
E|-----------------------------------------------------|

e|--------------------------------|
H|---5-5--5---x-5-----------------|
G|---5-5--5---x-5---------5-7-5-7-|
D|---5-5--5---x-5---5--7----------|
A|--------------------------------|
E|--------------------------------|

e|----------------------------------------|
H|---5-5--5---x-5-------------------------|
G|---5-5--5---x-5-----------5---7vvv------|
D|---5-5--5---x-5-----5--7----------------|
A|----------------------------------------|
E|----------------------------------------|

e|--------------------------------|
H|---5-5--5---x-5-----------------|
G|---5-5--5---x-5---------5-7-5-7-|
D|---5-5--5---x-5---5--7----------|
A|--------------------------------|
E|--------------------------------|

e|------------------------------------------------------|
H|---5-5--5---x-5---------------------------------------|
G|---5-5--5---x-5----7bU-99-bd(7)-----7bU-999-bd7p5-----|
D|---5-5--5---x-5---------------------------------------|
A|------------------------------------------------------|
E|------------------------------------------------------|

{ove 9-ke su u stvari bendovana 7-|ca i sve se brzo okidaju}

 Am7(cela strofa)(idu opet neke varijacije slicne 2. delu uvoda)

Samo trazis nesto dobro
samo trazis neki znak
a kada popnes se visoko
tamo uvek bude mrak

jer ja znam da je munja
jer ja znam da je grom
kade popnes se visoko
onda...grizi metak bejbi


 (ponovo uvod)

  (malo sax)

     i

SOLO:
e|--------------------------------------------------------------------|
B|-----------------------------------|mprovizacija iz Am blues-skale--|
G|---5--7-7b-7-5-7-5~~--5  7b-7-5-7-----------------------------------|
D|--------------------7----------------------mislim?!:)---------------|
A|--------------------------------------------------------------------|
E|--------------------------------------------------------------------|

-----------------------
bu - bend up
bd - band down
p - pull of
v - vibrato
( )- ton u zagradi se ne okida vec bi trebalo da se cuje kao posledica bu ili bd:)