Plejboj - Probaj

Album        : Overdrive (1997)
Transkripcija: Johnny (johnny47ns@yahoo.com)


Riff/intro:
    E7#9      A7
E----0-------------------------------
H----8---------5---------------------
G----7---------6---------------------
D----6---------5---------------------
A----7---------7---------5---5h7p5-0-  X4
E--0---------5------/5h7-------------

E-----------------5------5--
H-----------------8------8--
G-----------------6------6--
D---------------X-5----X-5--
A----7~---------X-7----X-7--  X4
E--0----7-8-9~--------------

       E7#9 A7
 Jos ponekad
             E7#9   A7
 Mislim da postojis
      E7#9 A7
 I da zivis
              E7#9  A7
 U nekom delu grada
        E7#9  A7
 Gde ja nisam
           E7#9 A7
 Nikada pre bio
        E7#9  A7
 Gde ja nisam
         E7#9  A7
 Ostavio traga

 
 E  G   A   C
 Probaj me, hej
 E  G   A   C
 Probaj me, hej
 E  G   A   C
 Probaj me, hej
G    F       E D#
 Dok sam jos tuuu


        E7#9   A7
 Sad se nadam
 Da sam negde blizu
      E5     D5     C5       H5+           E7#9  A7
 I da cekam, cekam, cekam da ostavis svoj znak

        E7#9 A7
 Ali ne znam
            E7#9 A7
 Da li si u pravu
      E5      D5      C5     H5+        E7#9 A7
 Kada mislis, mislis, mislis da cu biti lak


 Probaj me, hej
 Probaj me, hej
 Probaj me, hej
 Dok sam jos tu


 Probaj me, hej
 Probaj me, hej
 Probaj me, hej
 Dok sam jos tu

 Probaj me, hej
 Probaj me, hej
 Probaj me, hej
 Dok sam jos tu