Plejboj - Seksi

Album        : Overdrive (1997)
Transkripcija: Johnny (johnny47ns@yahoo.com)


 Intro:
E-------------------------------------------------------
H-------------------------------------------------------
G-------------------------------------------------------
D-------------------------4-----------------------------
A--------7----5-7p5----------------------5---------5h7--
E--0----------------7------------7---------------7------


 Hm     (na sedmoj poziciji) -- funky rhythm
 Odavno
 Uzalud pozelim
 Da sam svud oko tvog
 Koraka

 Ja hocu
 Samo malo i znam da
 Sve bi stalo u sekund
 Dodira

 Bezis mi
 Uzalud i znas da
 Nemas kud iz moga
 Pogleda

 I sad te
 Uzimam, i sad ne
 Oprastam, ja ne
 Zaboravljam

   D         H        C         A       G#          G7   F#7
E--10--------11-------8---------9-------4-----------3-----2--
H--10--10----12-------8---8-----10------4---4-------6-----5--
G--11--11----11-------9---9-----9-------5---5-------4-----3--
D--12--12----13-------10--10----11------6---6-------3-----2--
A--12--12-------------10--10------------6---6-------5-----4--
E------------------------------------------------------------

D          H
  Uvek sam tu
C        A
  Uvek i znam
G#        G7   F#7
  Tako je seksi

E-------------------------------------
H-------------------------------------
G--9--9\------7---9\------------------
D--9--9\------7---9\------------------
A--7--7\------5---7\------------------
E---------0------------4---5---5-6h7--


 Seksi
 Tako seksi
 Tako seksi
 Tako seksi

Hm
 Odavno
 Uzalud pozelim
 Da sam svud oko tvog
 Koraka

 Ja hocu
 Samo malo i znam da
 Sve bi stalo u sekund
 Dodira

 Bezis mi
 Uzalud i znas da
 Nemas kud iz moga
 Pogleda

 I sad te
 Uzimam, i sad ne
 Oprastam, ja ne
 Zaboravljam


 Uvek sam tu
 Uvek i znam
 Tako je seksi


 Seksi
 Tako seksi
 Tako seksi
 Tako seksi

 Seksi
 Tako je seksi
 Seksi
 Tako seksi

 Seksi
 Tako je seksi
 Seksi
 Tako seksi

 Seksi...
 Seksi...